» » »

Nuclear Assault, F# (Wake Up) Tabs (ver.1)

Artists:  A B C D E F G H I J K L M N O P Q R S T U V W X Y Z # 

F# (Wake Up) Tabs (ver.1)

Nuclear Assault Tabs
 Rating:
4/5 (4 votes)
F# (Wake Up) lessons Tabs too difficult? Try these video lessons and learn fast
1
                -------------------------------------------------------------------------------
F# (Wake Up)- Nuclear Assault
-------------------------------------------------------------------------------

Tuning: Half Step Down

Intro (Hold out note)
e|---------------------------------------------------------------------------|
B|---------------------------------------------------------------------------|
G|---------------------------------------------------------------------------|
D|---------------------------------------------------------------------------|
A|3--------------------------------------------------------------------------|
E|1--------------------------------------------------------------------------|

Verse :02                                                                  x2
e|---------------------------------------------------------------------------|
B|---------------------------------------------------------------------------|
G|---------------------------------------------------------------------------|
D|------------------------6-----------------------6-5-6----------------------|
A|5-----------6-----------4-----------6-----------4-3-4----------------------|
E|3-333333333-4-333333333---333333333-4-333333333----------------------------|
    *********   *********   *********   *********

Pre Chorus :12
e|---------------------------------------------------------------------------|
B|---------------------------------------------------------------------------|
G|---------------------------------------------------------------------------|
D|---------------------------------------------------------------------------|
A|3-3-3----------------------------------------------------------------------|
E|1-1-1----------------------------------------------------------------------|
                                                                          
                                                                           x2
e|---------------------------------------------------------------------------|
B|---------------------------------------------------------------------------|
G|---------------------------------------------------------------------------|
D|------------------------3---------------3----------------------------------|
A|2-----------3-----------1-----------3---1-3--------------------------------|
E|0-000000000-1-000000000---000000000-1-----1--------------------------------|
    *********   *********   *********

Chorus :22                                                                 x4
e|---------------------------------------------------------------------------|
B|---------------------------------------------------------------------------|
G|---------------------------------------------------------------------------|
D|----------------------------------------------------------3----------------|
A|2---------7---------------7---------------7-------------3-1----------------|
E|0---0-0-0---5-6-5---0-0-0---5-6-5---0-0-0---5-6-5---0-0-1------------------|
      * * *           * * *           * * *           * *

Verse 2 :42                                                                x2
e|---------------------------------------------------------------------------|
B|---------------------------------------------------------------------------|
G|---------------------------------------------------------------------------|
D|------------------------6-----------------------6-5-6----------------------|
A|5-----------6-----------4-----------6-----------4-3-4----------------------|
E|3-333333333-4-333333333---333333333-4-333333333----------------------------|
    *********   *********   *********   *********

Pre Chorus :52
e|---------------------------------------------------------------------------|
B|---------------------------------------------------------------------------|
G|---------------------------------------------------------------------------|
D|---------------------------------------------------------------------------|
A|3-3-3----------------------------------------------------------------------|
E|1-1-1----------------------------------------------------------------------|
                                                                           
                                                                           x2
e|---------------------------------------------------------------------------|
B|---------------------------------------------------------------------------|
G|---------------------------------------------------------------------------|
D|------------------------3---------------3----------------------------------|
A|2-----------3-----------1-----------3---1-3--------------------------------|
E|0-000000000-1-000000000---000000000-1-----1--------------------------------|
    *********   *********   *********

Chorus 1:02                                                                x4
e|---------------------------------------------------------------------------|
B|---------------------------------------------------------------------------|
G|---------------------------------------------------------------------------|
D|----------------------------------------------------------3----------------|
A|2---------7---------------7---------------7-------------3-1----------------|
E|0---0-0-0---5-6-5---0-0-0---5-6-5---0-0-0---5-6-5---0-0-1------------------|
      * * *           * * *           * * *           * *

Break 1:21 (Repeat these three bars four times)                                                 
e|---------------------------------------------------------------------------|
B|---------------------------------------------------------------------------|
G|---------------------------------------------------------------------------|
D|--------------------------------2-3----------------------------------------|
A|2-----------5-------3---2-------0-1----------------------------------------|
E|0---0-0-0-0-3---0-0-1---0---0-0--------------------------------------------|
      * * * *     * *         * *

e|---------------------------------------------------------------------------|
B|---------------------------------------------------------------------------|
G|---------------------------------------------------------------------------|
D|---------------------------------------------------------------------------|
A|2-----------5-----------3--------------------------------------------------|
E|0---0-0-0-0-3---0-0-0-0-1---0-0--------------------------------------------|
      * * * *     * * * *     * *

e|---------------------------------------------------------------------------|
B|---------------------------------------------------------------------------|
G|---------------------------------------------------------------------------|
D|--------------------------------4-3----------------------------------------|
A|2-----------5-------3---2-------2-1-5-3------------------------------------|
E|0---0-0-0-0-3---0-0-1---0---0-0-----3-1------------------------------------|
      * * * *     * *         * *   

1:57                                                                       x4
e|---------------------------------------------------------------------------|
B|---------------------------------------------------------------------------|
G|---------------------------------------------------------------------------|
D|----------3-2---------3-2---------3-2---3-----3----------------------------|
A|2---------1-0---------1-0---------1-0---1---3-1----------------------------|
E|0---0-0-0-------0-0-0-------0-0-0-----------1------------------------------|
      * * *       * * *       * * * 

2:16
e|---------------------------------------------------------------------------|
B|---------------------------------------------------------------------------|
G|---------------------------------------------------------------------------|
D|---------------------------------------------------------------------------|
A|3-3-3----------------------------------------------------------------------|
E|1-1-1----------------------------------------------------------------------|

Verse 3 2:17                                                               x2
e|---------------------------------------------------------------------------|
B|---------------------------------------------------------------------------|
G|---------------------------------------------------------------------------|
D|------------------------6-----------------------6-5-6----------------------|
A|5-----------6-----------4-----------6-----------4-3-4----------------------|
E|3-333333333-4-333333333---333333333-4-333333333----------------------------|
    *********   *********   *********   *********

Pre Chorus 2:27
e|---------------------------------------------------------------------------|
B|---------------------------------------------------------------------------|
G|---------------------------------------------------------------------------|
D|---------------------------------------------------------------------------|
A|3-3-3----------------------------------------------------------------------|
E|1-1-1----------------------------------------------------------------------|
                                                                           
                                                                           x2
e|---------------------------------------------------------------------------|
B|---------------------------------------------------------------------------|
G|---------------------------------------------------------------------------|
D|------------------------3---------------3----------------------------------|
A|2-----------3-----------1-----------3---1-3--------------------------------|
E|0-000000000-1-000000000---000000000-1-----1--------------------------------|
    *********   *********   *********

Chorus 2:37                                                                x4
e|---------------------------------------------------------------------------|
B|---------------------------------------------------------------------------|
G|---------------------------------------------------------------------------|
D|----------------------------------------------------------3----------------|
A|2---------7---------------7---------------7-------------3-1----------------|
E|0---0-0-0---5-6-5---0-0-0---5-6-5---0-0-0---5-6-5---0-0-1------------------|
      * * *           * * *           * * *           * *

************************************

| /   slide up
| \   slide down
| h   hammer-on
| p   pull-off
| ~   vibrato
| +   harmonic
| x   Mute note
| b   Bend
| pb  Pre-bend
| br  Bend release
| pbr Pre-bend release
| brb Bend release bend

************************************
            
Submit corrections

comments powered by Disqus
↑ Back to top | Nuclear Assault Tabs for F# (Wake Up). Lyrics for acoustic guitar and electric guitar. 1 Tablatures and chords are parodies/interpretations of the original songs. You may use it for private study, scholarship, research or language learning purposes only