» » »

Nuclear Assault, F# (Wake Up) Bass tabs (ver.1)

Artists:  A B C D E F G H I J K L M N O P Q R S T U V W X Y Z # 

F# (Wake Up) Bass tabs (ver.1)

Nuclear Assault Tabs
 Rating:
4/5 (4 votes)
F# (Wake Up) lessons Tabs too difficult? Try these video lessons and learn fast
1
                
Its a fairly simple song,once you learn the verse part

Tune down half a step (D#, G#, C#, F#)

|-----------------|
|-----------------|
|-----------------|
|-1---------------|

Verse
|-------------------------------------------------------|
|-------------------------------------------------------|
|---------------------------444-------------------4p3h4-|
|-3--3--3-3-3-444-3-3-3-3-3-----3-3-3-3-3-444-3-3-------|

|-------------------------------------------------------|
|-------------------------------------------------------|
|---------------------------444-------------------4p3h4-|
|-3--3--3-3-3-444-3-3-3-3-3-----3-3-3-3-3-444-3-3-------|

|--------------------------------------------------------|
|--------------------------------------------------------|
|---------------------------------111---------------1----|
|-1-1-1-0--0--0-0-0-111-0-0-0-0-0-----0-0-0-0-0-1------1-|

|--------------------------------------------------|
|--------------------------------------------------|
|---------------------------111---------------1----|
|-0--0--0-0-0-111-0-0-0-0-0-----0-0-0-0-0-1------1-|

Chorus
|------------------------------------------------------|
|------------------------------------------------------|
|----------7--------------7--------------7-----------1-|
|-0--0-0-0---5-6-5--0-0-0---5-6-5--0-0-0---5-6-5---1---|

|------------------------------------------------------|
|------------------------------------------------------|
|----------7--------------7--------------7-----------1-|
|-0--0-0-0---5-6-5--0-0-0---5-6-5--0-0-0---5-6-5---1---|

|------------------------------------------------------|
|------------------------------------------------------|
|----------7--------------7--------------7-----------1-|
|-0--0-0-0---5-6-5--0-0-0---5-6-5--0-0-0---5-6-5---1---|

|------------------------------------------------------|
|------------------------------------------------------|
|----------7--------------7--------------7-----------1-|
|-0--0-0-0---5-6-5--0-0-0---5-6-5--0-0-0---5-6-5---1---|

Verse
|-------------------------------------------------------|
|-------------------------------------------------------|
|---------------------------444-------------------4p3h4-|
|-3--3--3-3-3-444-3-3-3-3-3-----3-3-3-3-3-444-3-3-------|

|-------------------------------------------------------|
|-------------------------------------------------------|
|---------------------------444-------------------4p3h4-|
|-3--3--3-3-3-444-3-3-3-3-3-----3-3-3-3-3-444-3-3-------|

|--------------------------------------------------------|
|--------------------------------------------------------|
|---------------------------------111---------------1----|
|-1-1-1-0--0--0-0-0-111-0-0-0-0-0-----0-0-0-0-0-1------1-|

|--------------------------------------------------|
|--------------------------------------------------|
|---------------------------111---------------1----|
|-0--0--0-0-0-111-0-0-0-0-0-----0-0-0-0-0-1------1-|

Chorus
|------------------------------------------------------|
|------------------------------------------------------|
|----------7--------------7--------------7-----------1-|
|-0--0-0-0---5-6-5--0-0-0---5-6-5--0-0-0---5-6-5---1---|

|------------------------------------------------------|
|------------------------------------------------------|
|----------7--------------7--------------7-----------1-|
|-0--0-0-0---5-6-5--0-0-0---5-6-5--0-0-0---5-6-5---1---|

|------------------------------------------------------|
|------------------------------------------------------|
|----------7--------------7--------------7-----------1-|
|-0--0-0-0---5-6-5--0-0-0---5-6-5--0-0-0---5-6-5---1---|

|------------------------------------------------------|
|------------------------------------------------------|
|----------7--------------7--------------7-----------1-|
|-0--0-0-0---5-6-5--0-0-0---5-6-5--0-0-0---5-6-5---1---|

Solo
|---------------------------------|
|---------------------------------|
|-----------------------------0-1-|
|-0--0-0-0-0-3--0-0-1--0--0-0-----|

|---------------------------------|
|---------------------------------|
|---------------------------------|
|-0--0-0-0-0-3--0-0-0-0-1---0-0---|

|----------------------------------------|
|----------------------------------------|
|-----------------------------2--1-------|
|-0--0-0-0-0-3--0-0-1--0--0-0-------3--1-|

|---------------------------------|
|---------------------------------|
|-----------------------------0-1-|
|-0--0-0-0-0-3--0-0-1--0--0-0-----|

|---------------------------------|
|---------------------------------|
|---------------------------------|
|-0--0-0-0-0-3--0-0-0-0-1---0-0---|

|----------------------------------------|
|----------------------------------------|
|-----------------------------2--1-------|
|-0--0-0-0-0-3--0-0-1--0--0-0-------3--1-|

|---------------------------------|
|---------------------------------|
|-----------------------------0-1-|
|-0--0-0-0-0-3--0-0-1--0--0-0-----|

|---------------------------------|
|---------------------------------|
|---------------------------------|
|-0--0-0-0-0-3--0-0-0-0-1---0-0---|

|----------------------------------------|
|----------------------------------------|
|-----------------------------2--1-------|
|-0--0-0-0-0-3--0-0-1--0--0-0-------3--1-|

|---------------------------------|
|---------------------------------|
|-----------------------------0-1-|
|-0--0-0-0-0-3--0-0-1--0--0-0-----|

|---------------------------------|
|---------------------------------|
|---------------------------------|
|-0--0-0-0-0-3--0-0-0-0-1---0-0---|

|----------------------------------------|
|----------------------------------------|
|-----------------------------2--1-------|
|-0--0-0-0-0-3--0-0-1--0--0-0-------3--1-|

|-------------------------------------------------------|
|-------------------------------------------------------|
|----------1p0-1p0-------1p0-1p0-------1p0-1-----1------|
|-0--0-0-0---------0-0-0---------0-0-0-------1------0h1-|

|-------------------------------------------------------|
|-------------------------------------------------------|
|----------1p0-1p0-------1p0-1p0-------1p0-1-----1------|
|-0--0-0-0---------0-0-0---------0-0-0-------1------0h1-|

|-------------------------------------------------------|
|-------------------------------------------------------|
|----------1p0-1p0-------1p0-1p0-------1p0-1-----1------|
|-0--0-0-0---------0-0-0---------0-0-0-------1------0h1-|

|-------------------------------------------------------|
|-------------------------------------------------------|
|----------1p0-1p0-------1p0-1p0-------1p0-1-----1------|
|-0--0-0-0---------0-0-0---------0-0-0-------1------0h1-|

Verse
|-------------------------------------------------------------|
|-------------------------------------------------------------|
|---------------------------------444-------------------4p3h4-|
|-1-1-1-3--3--3-3-3-444-3-3-3-3-3-----3-3-3-3-3-444-3-3-------|

|-------------------------------------------------------|
|-------------------------------------------------------|
|---------------------------444-------------------4p3h4-|
|-3--3--3-3-3-444-3-3-3-3-3-----3-3-3-3-3-444-3-3-------|

|--------------------------------------------------------|
|--------------------------------------------------------|
|---------------------------------111---------------1----|
|-1-1-1-0--0--0-0-0-111-0-0-0-0-0-----0-0-0-0-0-1------1-|

|--------------------------------------------------|
|--------------------------------------------------|
|---------------------------111---------------1----|
|-0--0--0-0-0-111-0-0-0-0-0-----0-0-0-0-0-1------1-|

Chorus
|------------------------------------------------------|
|------------------------------------------------------|
|----------7--------------7--------------7-----------1-|
|-0--0-0-0---5-6-5--0-0-0---5-6-5--0-0-0---5-6-5---1---|

|------------------------------------------------------|
|------------------------------------------------------|
|----------7--------------7--------------7-----------1-|
|-0--0-0-0---5-6-5--0-0-0---5-6-5--0-0-0---5-6-5---1---|

|------------------------------------------------------|
|------------------------------------------------------|
|----------7--------------7--------------7-----------1-|
|-0--0-0-0---5-6-5--0-0-0---5-6-5--0-0-0---5-6-5---1---|

|------------------------------------------------------|
|------------------------------------------------------|
|----------7--------------7--------------7-----------1-|
|-0--0-0-0---5-6-5--0-0-0---5-6-5--0-0-0---5-6-5---1---|
            
Submit corrections

comments powered by Disqus
↑ Back to top | Nuclear Assault Bass for F# (Wake Up). Lyrics for acoustic guitar and electric guitar. 1 Tablatures and chords are parodies/interpretations of the original songs. You may use it for private study, scholarship, research or language learning purposes only