» » »

Critical Mass Bass tabs (ver.1)

Artists:  A B C D E F G H I J K L M N O P Q R S T U V W X Y Z # 

Critical Mass Bass tabs (ver.1)

Nuclear Assault
Rating:
5/5 (2 votes)

Hard to play? Try these video lessons and learn fast.
                NUCLEAR ASSAULT - CRITICAL MASS

Tune 1/2 Step Down
INTRO                                                                       |--|
|------------------------------------------------------------------------------|   x9
|------------------------------------------------------------------------------|
|--0--0--4--3--0--0--0--2----0--0--0--10--9--10--13--12------------------------|

|---------------------------------------------------------|
|---------------------------------------------------------|   x1
|------------------------------------------------------1--|
|--0--0--4--3--0--0--0--2----0--0--0--10--9--10--13--0----|


|-------------------------------------------|
|-------------------------------------------|  x4
|------------------2-----------1------------|
|--0---0--0--2--3--------0--0------2-----1--|

|-----------------------------------------------------------------------|
|-----------------------------------------------------------------------| x4
|-------------------------------1------------------------------1------0-|
|-0--0--1--0--0--0--0---0--0--0---0--0--0--1--0--0--0--0---0--0--0--0---|


|-------------------------------------------|
|-------------------------------------------|  x8
|------------------2-----------1------------|
|--0---0--0--2--3--------0--0------2-----1--|


|-----------------------------------------------------------------------|
|-----------------------------------------------------------------------| x4
|-------------------------------1------------------------------1------0-|
|-0--0--1--0--0--0--0---0--0--0---0--0--0--1--0--0--0--0---0--0--0--0---|

|-------------------------------------------|
|-------------------------------------------|  x7
|------------------2-----------1------------|
|--0---0--0--2--3--------0--0------2-----1--|


|-------------------------|
|-------------------------|  x1
|------------------2------|
|--0---0--0--2--3------2--|


|--------------------------------------------------------|
|--------------------------------------------------------|   x9
|--------------------------------------------------------|
|--0--0--4--3--0--0--0--2----0--0--0--10--9--10--13--12--|


|-----------------------------------------------------------------------|
|-----------------------------------------------------------------------| x4
|-------------------------------1------------------------------1------0-|
|-0--0--1--0--0--0--0---0--0--0---0--0--0--1--0--0--0--0---0--0--0--0---|


|-------------------------------------------|
|-------------------------------------------|  x7
|------------------2-----------1------------|
|--0---0--0--2--3--------0--0------2-----1--|


|-------------------------|
|-------------------------|  x1
|------------------2------|
|--0---0--0--2--3------2--|


|--------------------------------------------------------|
|--------------------------------------------------------|   x9
|--------------------------------------------------------|
|--0--0--4--3--0--0--0--2----0--0--0--10--9--10--13--12--|
            
Hard to play? Try these video lessons and learn fast. | Correct




comments powered by Disqus
↑ Back to top | Tablatures and chords are parodies/interpretations of the original songs. You may use it for private study, scholarship, research or language learning purposes only