>
 >
After The Holocaust

After The Holocaust Guitar Tabs

Nuclear Assault - After The Holocaust chords, tabs, tablatures, lyrics

Guitar lessons | Add/correct | Request | Top 50 tabs Artists:  A B C D E F G H I J K L M N O P Q R S T U V W X Y Z 0-9

After The Holocaust Guitar Tabs – Nuclear Assault

CD, Sheet music, Poster

Do you like After The Holocaust? Share with your friends now
Tabs

AFTER THE HOLOCAUST
As recorded by Nuclear Assault

        



Gtr I (E A D G B E) - 'Untitled'
Gtr II (E A D G B E) - 'Untitled'

 Intro
  Q=150
 4/4
  Gtr I
  E E E E E E E E   E E E E E E E E   E E   E E E E E E    E  E E E E E E E
|-----1-------1---|-----1-------1---|-------1-------1---|-------1-------1---|
|---3---3---3---3-|---3---3---3---3-|---3-----3---3---3-|-----3---3---3---3-|
|-----------------|-----------------|-------------------|-------------------|
|-0-------0-------|-0-------0-------|-0---------0-------|--0--------0-------|
|-----------------|-----------------|-------------------|-------------------|
|-----------------|-----------------|-------------------|-------------------|
|
| Gtr II
| W                 W                 E H..               +W
|-----------------|-----------------|-------------------|-------------------|
|-----------------|-----------------|-------------------|-------------------|
|-----------------|-----------------|-7S9---------------|-(9)---------------|
|-----------------|-----------------|-------------------|-------------------|
|-----------------|-----------------|-5S7---------------|-(7)---------------|
|-----------------|-----------------|-------------------|-------------------|
                                      E H..               +W


  Gtr I
  E  E   E E E E E E     E  E E E E E E E
|--------1-0-----1-0-|--------1-0-----1-0-|
|----3---------3-----|------3-------3-----|
|--------------------|--------------------|
|-0----------0-------|---0--------0-------|
|--------------------|--------------------|
|--------------------|--------------------|
|
| Gtr II
| E  H..                +W
|--------------------|--------------------|
|--------------------|--------------------|
|-9S10---------------|-(10)---------------|
|--------------------|--------------------|
|-7S=8---------------|--(8)---------------|
|--------------------|--------------------|
  E  H..                +W


   E  E   E E E E E E     E   E E E E E E  E
|---------1-0-----1-0-|---------1-0-----1--0-|
|-----3---------3-----|-------3-------3------|
|---------------------|----------------------|
|--0----------0-------|---0---------0--------|
|---------------------|----------------------|
|---------------------|----------------------|
|
|  E  H..                +H..              E
|---------------------|----------------------|
|---------------------|----------------------|
|-10S12---------------|-(12)--------------12-|
|---------------------|----------------------|
|--8S10---------------|-(10)--------------10-|
|---------------------|----------------------|
   E  H..                +H..              E


  Gtr I
  E E E E E E E E    E  E E E E E E E    E  E E E E E E E    E  E E E E E E E
|-----1-------1---|-------1-------1---|-------1-------1---|-------1-------1---|
|---3---3---3---3-|-----3---3---3---3-|-----3---3---3---3-|-----3---3---3---3-|
|-----------------|-------------------|-------------------|-------------------|
|-0-------0-------|--0--------0-------|--0--------0-------|--0--------0-------|
|-----------------|-------------------|-------------------|-------------------|
|-----------------|-------------------|-------------------|-------------------|
|
| Gtr II
| W                 +W                  +W                  +W
|-----------------|-------------------|-------------------|-------------------|
|-----------------|-------------------|-------------------|-------------------|
|-7---------------|-(7)---------------|-(7)---------------|-(7)---------------|
|-----------------|-------------------|-------------------|-------------------|
|-5---------------|-(5)---------------|-(5)---------------|-(5)---------------|
|-----------------|-------------------|-------------------|-------------------|
  W                 +W                  +W                  +W


  Gtr I
   E  E E E E E E E    E  E E E E E E E
|-------1-0-----1-0-|-------1-0-----1-0-|
|-----3-------3-----|-----3-------3-----|
|-------------------|-------------------|
|--0--------0-------|--0--------0-------|
|-------------------|-------------------|
|-------------------|-------------------|
|
| Gtr II
| +W                  +W
|-------------------|-------------------|
|-------------------|-------------------|
|-(7)---------------|-(7)---------------|
|-------------------|-------------------|
|-(5)---------------|-(5)---------------|
|-------------------|-------------------|
  +W                  +W


   E  E E E E E E E    E  E E E E E E E
|-------1-0-----1-0-|-------1-0-----1-0-|
|-----3-------3-----|-----3-------3-----|
|-------------------|-------------------|
|--0--------0-------|--0--------0-------|
|-------------------|-------------------|
|-------------------|-------------------|
|
|                      <
| +W                  +W
|-------------------|-------------------|
|-------------------|-------------------|
|-(7)---------------|-(7)---------------|
|-------------------|-------------------|
|-(5)---------------|-(5)---------------|
|-------------------|-------------------|
  +W                  +W


    Gtr I
       PM|    PM|      PM|             PM|    PM|      PM|
    Q  E E Q  E E   Q  E E E E Q    Q  E E Q  E E   Q  E E H
||----------------|---------------|---------------|--------------||
||o---------------|---------------|---------------|-------------o||
||----------------|---------------|---------------|--------------||
||--2------5------|-7------8-7-5--|-2------5------|-7------8-----||
||o-2------5------|-7------8-7-5--|-2------5------|-7------8----o||
||--0--0-0-3--0-0-|-5--0-0-6-5-3--|-0--0-0-3--0-0-|-5--0-0-6-----||


     PM|     PM|       PM|                PM|     PM|       PM|
  Q  E E  Q  E E    Q  E E  E  E  Q    Q  E E  Q  E E    Q  E E  H
|----------------|-------------------|----------------|---------------|
|----------------|-------------------|----------------|---------------|
|-9------12------|-14------15-14-12--|-9------12------|-14------15----|
|-9------12------|-14------15-14-12--|-9------12------|-14------15----|
|-7------10------|-12------13-12-10--|-7------10------|-12------13----|
|----0-0-----0-0-|-----0-0-----------|----0-0-----0-0-|-----0-0-------|


     PM|    PM|      PM|
  Q  E E Q  E E   Q  E E E E Q    H    E E Q    +W
|---------------|---------------|-------------|--------|
|---------------|---------------|-------------|--------|
|---------------|---------------|-9----7-5-4--|-(4)----|
|-2------5------|-7------8-7-5--|-9----7-5-4--|-(4)----|
|-2------5------|-7------8-7-5--|-7----5-3-2--|-(2)----|
|-0--0-0-3--0-0-|-5--0-0-6-5-3--|-------------|--------|


  H..       E     S S S S E S S E S S S S  E   S S S S E S S E S S E E  6x
|-------------||-----------------------------|--------------------------||
|-------------||o----------------------------|-------------------------o||
|-----------4-||----------9-----7-----7---10-|---------9-----7----------||
|-----------4-||----------9-----7-----7---10-|---------9-----7-----8-5--||
|-----------2-||o---------7-----5-----5----8-|---------7-----5-----8-5-o||
|-------------||--0-0-0-0---0-0---0-0---0----|-0-0-0-0---0-0---0-0-6-3--||


   Verse 1 and 2
    S S S S S S S S S S S S S S S S   S S S S S S S S S S S S S S E
||----------------------------------|-------------------------------|
||o---------------------------------|-------------------------------|
||----------------------------------|-------------------------------|
||----------------------------------|-----------------------------5-|
||o---------------------------------|-----------------------------5-|
||--0-0-0-0-0-0-0-0-0-0-0-0-0-0-0-0-|-0-0-0-0-0-0-0-0-0-0-0-0-0-0-3-|


  S S S S S S S S S S S S S S S S   S S S S S S S S S S S S S S S S
|---------------------------------|---------------------------------|
|---------------------------------|---------------------------------|
|---------------------------------|---------------------------------|
|---------------------------------|-------------------------8-7-----|
|---------------------------------|-------------------------8-7-----|
|-0-0-0-0-0-0-0-0-0-0-0-0-0-0-0-0-|-0-0-0-0-0-0-0-0-0-0-0-0-6-5-0-0-|


  S S S S S S S S S S S S S S S S   S S S S S S S S S S S S S S E
|---------------------------------|--------------------------------|
|---------------------------------|--------------------------------|
|---------------------------------|--------------------------------|
|---------------------------------|-----------------------------5--|
|---------------------------------|-----------------------------5--|
|-0-0-0-0-0-0-0-0-0-0-0-0-0-0-0-0-|-0-0-0-0-0-0-0-0-0-0-0-0-0-0-3--|


  S S S S S S S S S S S S S S S S   S S S S S S S S S S S S S S S S
|---------------------------------|---------------------------------|
|---------------------------------|---------------------------------|
|---------------------------------|---------------------------------|
|---------------------------------|-------------------------8-7-----|
|---------------------------------|-------------------------8-7-----|
|-0-0-0-0-0-0-0-0-0-0-0-0-0-0-0-0-|-0-0-0-0-0-0-0-0-0-0-0-0-6-5-0-0-|


  S S S S E S S E S S S S  E   S S S S E S S E S S E E
|----------------------------|-------------------------|
|----------------------------|-------------------------|
|---------9-----7-----7---10-|---------9-----7---------|
|---------9-----7-----7---10-|---------9-----7-----8-5-|
|---------7-----5-----5----8-|---------7-----5-----8-5-|
|-0-0-0-0---0-0---0-0---0----|-0-0-0-0---0-0---0-0-6-3-|


  S S S S E S S E S S S S  E
|-----------------------------|
|-----------------------------|
|---------9-----7-----7---10--|
|---------9-----7-----7---10--|
|---------7-----5-----5----8--|
|-0-0-0-0---0-0---0-0---0-----|


  S S S S E S S E S S E E
|-------------------------|
|-------------------------|
|---------9-----7---------|
|---------9-----7-----8-5-|
|---------7-----5-----8-5-|
|-0-0-0-0---0-0---0-0-6-3-|


  S S S S E S S E S S S S  E   S S S S E S S E S S E E
|----------------------------|-------------------------|
|----------------------------|-------------------------|
|---------9-----7-----7---10-|---------9-----7---------|
|---------9-----7-----7---10-|---------9-----7-----8-5-|
|---------7-----5-----5----8-|---------7-----5-----8-5-|
|-0-0-0-0---0-0---0-0---0----|-0-0-0-0---0-0---0-0-6-3-|


  S S S S E S S E S S S S  E   S S S S E S S E S S E E
|----------------------------|--------------------------||
|----------------------------|-------------------------o||
|---------9-----7-----7---10-|---------9-----7----------||
|---------9-----7-----7---10-|---------9-----7-----8-5--||
|---------7-----5-----5----8-|---------7-----5-----8-5-o||
|-0-0-0-0---0-0---0-0---0----|-0-0-0-0---0-0---0-0-6-3--||


   Solo Riffs
    E S S S S E E S S S S S S   E S S S S E E S S S S S S
||----------------------------|----------------------------|
||o---------------------------|----------------------------|
||--2---------3-2-------------|-2---------3-2--------------|
||--2---------3-2-------------|-2---------3-2--------------|
||o---0-0-0-0-----0-0-0-0-0-0-|---0-0-0-0-----0-0-0-0-0-0--|
||----------------------------|----------------------------|


  E S S S S E E S S S S S S   E S S S S E E E E E  4x
|---------------------------|----------------------||
|---------------------------|---------------------o||
|-2---------3-2-------------|-2---------3-------3--||
|-2---------3-2-------------|-2---------3-3-0-3-3--||
|---0-0-0-0-----0-0-0-0-0-0-|---0-0-0-0---3-0-3---o||
|---------------------------|----------------------||


    S S S S S S S S S S E S S E   E S S S S S S S S E S S E
||------------------------------|---------------------------|
||o-----------------------------|---------------------------|
||----------------------3-------|-------------------3-------|
||----------------------3-----2-|-4-----------------3-----2-|
||o---------------------1-----2-|-4-----------------1-----2-|
||--0-2-2-2-2-2-2-0-0-0---0-0-0-|-2-2-2-2-2-2-0-0-0---0-0-0-|


  E S S S S S S S S E S S E   E S S S S S S S S S S S S S S  4x
|---------------------------|--------------------------------||
|---------------------------|-------------------------------o||
|-------------------3-------|--------------------------------||
|-4-----------------3-----2-|-4------------------------------||
|-4-----------------1-----2-|-4-----------------------------o||
|-2-2-2-2-2-2-0-0-0---0-0-0-|-2-2-2-2-2-2-3-3-3-3-3-3-3-3-3--||


   Verse 3
    S S S S S S S S S S S S S S S S   S S S S S S S S S S S S S S E
||----------------------------------|-------------------------------|
||o---------------------------------|-------------------------------|
||----------------------------------|-------------------------------|
||----------------------------------|-----------------------------5-|
||o---------------------------------|-----------------------------5-|
||--0-0-0-0-0-0-0-0-0-0-0-0-0-0-0-0-|-0-0-0-0-0-0-0-0-0-0-0-0-0-0-3-|


  S S S S S S S S S S S S S S S S   S S S S S S S S S S S S S S S S
|---------------------------------|----------------------------------||
|---------------------------------|---------------------------------o||
|---------------------------------|----------------------------------||
|---------------------------------|-------------------------8-7------||
|---------------------------------|-------------------------8-7-----o||
|-0-0-0-0-0-0-0-0-0-0-0-0-0-0-0-0-|-0-0-0-0-0-0-0-0-0-0-0-0-6-5-0-0--||


    S S S S E S S E S S S S  E   S S S S E S S E S S E E
||-----------------------------|--------------------------||
||o----------------------------|-------------------------o||
||----------9-----7-----7---10-|---------9-----7----------||
||----------9-----7-----7---10-|---------9-----7-----8-5--||
||o---------7-----5-----5----8-|---------7-----5-----8-5-o||
||--0-0-0-0---0-0---0-0---0----|-0-0-0-0---0-0---0-0-6-3--||


 Outro
  S S S S E S S E S S S S  E   S S S S E S S E S S E E
|----------------------------|-------------------------|
|----------------------------|-------------------------|
|---------9-----7-----7---10-|---------9-----7---------|
|---------9-----7-----7---10-|---------9-----7-----8-5-|
|---------7-----5-----5----8-|---------7-----5-----8-5-|
|-0-0-0-0---0-0---0-0---0----|-0-0-0-0---0-0---0-0-6-3-|


  S S S S E S S E S S S S  E   S S S S E S S E S S E E
|----------------------------|-------------------------|
|----------------------------|-------------------------|
|---------9-----7-----7---10-|---------9-----7---------|
|---------9-----7-----7---10-|---------9-----7-----8-5-|
|---------7-----5-----5----8-|---------7-----5-----8-5-|
|-0-0-0-0---0-0---0-0---0----|-0-0-0-0---0-0---0-0-6-3-|


  S S S S E S S E S S S S  E   S S S S E S S E S S E E
|----------------------------|-------------------------|
|----------------------------|-------------------------|
|---------9-----7-----7---10-|---------9-----7---------|
|---------9-----7-----7---10-|---------9-----7-----8-5-|
|---------7-----5-----5----8-|---------7-----5-----8-5-|
|-0-0-0-0---0-0---0-0---0----|-0-0-0-0---0-0---0-0-6-3-|


                                                   |-3-|
  S S S S E S S E S S S S  E   S S S S E S S E S S E E E
|----------------------------|---------------------------|
|----------------------------|---------------------------|
|---------9-----7-----7---10-|---------9-----7-----------|
|---------9-----7-----7---10-|---------9-----7-----8-5-4-|
|---------7-----5-----5----8-|---------7-----5-----8-5-4-|
|-0-0-0-0---0-0---0-0---0----|-0-0-0-0---0-0---0-0-6-3-2-|


               >
  +W           W
|------------|------*|
|------------|------*|
|------------|-9----*|
|-(4)--------|-9----*|
|-(4)--------|-7----*|
|-(2)--------|------*|



Duration Legend
---------------
W - whole; H - half; Q - quarter; E - 8th; S - 16th; T - 32nd; X - 64th; a - acciaccatura
+ - note tied to previous; . - note dotted; .. - note double dotted
Uncapitalized letters represent notes that are staccato (1/2 duration)
Irregular groupings are notated above the duration line
Duration letters will always appear directly above the note/fret number it represents the
duration for.  Duration letters with no fret number below them represent rests.  Multi-
bar rests are notated in the form Wxn, where n is the number of bars to rest for.  Low
melody durations appear below the staff

Tablature Legend
----------------
 h   - hammer-on
 p   - pull-off
 b   - bend
 pb  - pre-bend
 r   - bend release (if no number after the r, then release immediately)
 /\  - slide into or out of (from/to "nowhere")
 s   - legato slide
 S   - shift slide
 - natural harmonic
[n]  - artificial harmonic
n(n) - tapped harmonic
 ~   - vibrato
 tr  - trill
 T   - tap
 TP  - trem. picking
 PM  - palm muting
\n/  - tremolo bar dip; n = amount to dip
 \n  - tremolo bar down
 n/  - tremolo bar up
/n\  - tremolo bar inverted dip
 =   - hold bend; also acts as connecting device for hammers/pulls
 <> - volume swell (louder/softer)
 x   - on rhythm slash represents muted slash
 o   - on rhythm slash represents single note slash

Misc Legend
-----------
 |  - bar
||  - double bar
||o - repeat start
o|| - repeat end
*|  - double bar (ending)
 :  - bar (freetime)
 $  - Segno
 &  - Coda
Tempo markers -  = BPM(8/16=s8/s16), where s8 = swing 8ths, s16 = swing 16ths





Comments


Popular Nuclear Assault tabs & chords
Brainwashed Tabs
Critical Mass 2 Tabs
F# (Wake Up) Tabs
Mother's Day Tabs
New Song Tabs
New Song 1 Tabs
Search And Seizure Tabs
Surgery Tabs
Torture Tactics Tabs
Trail Of Tears Tabs


Song lyrics



↑ Back to top | Tablatures and chords are parodies/interpretations of the original songs. You may use it for private study, scholarship, research or language learning purposes only
© 2014 AZChords.com Contact us | Privacy policy | DMCA | Add/correct tabs | Request tabs | Top 50 tabs