>
 >
Who Needs A Woman

Who Needs A Woman Guitar Tabs

Nrok - Who Needs A Woman chords, tabs, tablatures, lyrics

Guitar lessons | Add/correct | Request | Top 50 tabs Artists:  A B C D E F G H I J K L M N O P Q R S T U V W X Y Z 0-9

Who Needs A Woman Guitar Tabs – Nrok

CD, Sheet music, Poster

Do you like Who Needs A Woman? Share with your friends now
Tabs
Who needs a woman (i wanna rock and roll)

Intro

|------------------------------------------------------------------------|
|------------------------------------------------------------------------|
|-----------------7-7-7-----------9-9-9--7-7-7--5-5-5----7-7-7-7-9-9-9-9-|
|-7-7-7---5-5-5---7-7-7---7-7-7---9-9-9--7-7-7--5-5-5----7-7-7-7-9-9-9-9-|
|-7-7-7---5-5-5---5-5-5---7-7-7---7-7-7--5-5-5--3-3-3----5-5-5-5-7-7-7-7-|
|-5-5-5---3-3-3-----------5-5-5------------------------------------------|

|-----------------------------------|---------------------------------|
|-----------------------------------|---------------------------------|
|-------------------------7-7-----|---------5-5-5-5-7-7-7-7---------|
|-7-7-7-7-7-7-7-7-5-5-5-5-7-7-5-5-|-7-7-7-7-5-5-5-5-7-7-7-7-3-3-5-5-|
|--7-7-7-7-7-7-7-7-5-5-5-5-5-5-5-5--|-7-7-7-7-3-3-3-3-5-5-5-5-3-3-5-5-|
|--5-5-5-5-5-5-5-5-3-3-3-3-----3-3--|-5-5-5-5-----------------1-1-3-3-|

Verse

		   A~~           D~~
|-------------------------------------------|
|-------------------------------------------|
|---------7-7-7-7---------------------------|
|-7-7-7-7-7-7-7-7---------------------------|
|-7-7-7-7-5-5-5-5----------5-7-5--5-5-7-5---|
|-5-5-5-5---------5--8-5-8----------------8-|

		   A~~		 D~~
|-------------------------------------------|
|-------------------------------------------|
|-------------------------------------------|
|-7-7-7-7-5-5-5-5---------------------------|
|-7-7-7-7-5-5-5-5----------5-7-5--5-5-7-5---|
|-5-5-5-5-3-3-3-3-5--8-5-8----------------8-|

|-----------------------------------|---------------------------------|
|-----------------------------------|---------------------------------|
|-9-9-9-9-------9-9-7-7-7-7-7-7-7-7-|---------------------------------|
|-9-9-9-9-11-11-9-9-7-7-7-7-7-7-7-7-|-7-7-7-7-7-7-5-5-2-2-2-2-2-2-2-2-|
|-7-7-7-7-7--7--7-7-5-5-5-5-5-5-5-5-|-7-7-7-7-7-7-5-5-2-2-2-2-2-2-2-2-|
|-----------------------------------|-5-5-5-5-5-5-3-3-0-0-0-0-0-0-0-0-|

Chorus

|------------------------------------|---------------------------------|
|------------------------------------|---------------------------------|
|--------------------------7-7-----|-----------------5-5-5-5-5-5-5-5-|
|-7-7-7-7-7-7-xxxx-5-5-5-5-7-7-5-5-|-7-7-7-7-7-7-7-7-5-5-5-5-5-5-5-5-|
|--7-7-7-7-7-7-xxxx-5-5-5-5-5-5-5-5--|-7-7-7-7-7-7-7-7-3-3-3-3-3-3-3-3-|
|--5-5-5-5-5-5-xxxx-3-3-3-3-----3-3--|-5-5-5-5-5-5-5-5-----------------|

|---------------------------------|
|---------------------------------|
|-7-7-7-7-7-7-7-7-----------------|
|-7-7-7-7-7-7-7-7-3-3-3-3-5-5-5-5-|
|-5-5-5-5-5-5-5-5-3-3-3-3-5-5-5-5-|
|-----------------1-1-1-1-3-3-3-3-|

Fill (2x)

|--------------------------------------------|
|--------------------------------------------|
|---------------------5-5--5-5---------------|
|-7--7--7--7-7-7-7-7--5-5--5-5--3--3--3--3---|
|-7--7--7--7-7-7-7-7--3-3--3-3--3--3--3--3---|
|-5--5--5--5-5-5-5-5------------1--1--1--1---|
|
|--------------------------------------------|
|--------------------------------------------|
|--------------------------------------------|
|--------------------------------------------|
|--------------5-3-------------------8-7-5---|
|-5--3-5--3-5------5--8--5-8--5-8--5-------8-|

Verse

Chorus

Fill

SOLOS

|----------------------------------------------------------------------------------|
|--------------------------------------------.-------------------------------------|
|-----------------.----------7-7-7-7-5-5-5-5-7--------------------------.----------|
|-7-7-7-7-5-5-5-5-7----------7-7-7-7-5-5-5-5-7----------7-7-7-7-5-5-5-5-7----------|
|-7-7-7-7-5-5-5-5-7--guitar--5-5-5-5-3-3-3-3-5--guitar--7-7-7-7-5-5-5-5-7--drum----|
|-5-5-5-5-3-3-3-3-5---solo-----------------------solo---5-5-5-5-3-3-3-3-5--solo----|

|-----------------------------------|---------------------------------|
|-----------------------------------|---------------------------------|
|-9-9-9-9-------9-9-7-7-7-7-7-7-7-7-|---------------------------------|
|-9-9-9-9-11-11-9-9-7-7-7-7-7-7-7-7-|-7-7-7-7-7-7-5-5-2-2-2-2-2-2-2-2-|
|-7-7-7-7-7--7--7-7-5-5-5-5-5-5-5-5-|-7-7-7-7-7-7-5-5-2-2-2-2-2-2-2-2-|
|-----------------------------------|-5-5-5-5-5-5-3-3-0-0-0-0-0-0-0-0-|

|----------------------------------------------------------------------------------|
|--------------------------------------------.-------------------------------------|
|-----------------.----------7-7-7-7-5-5-5-5-7--------------------------.----------|
|-7-7-7-7-5-5-5-5-7----------7-7-7-7-5-5-5-5-7----------7-7-7-7-5-5-5-5-7----------|
|-7-7-7-7-5-5-5-5-7---bass---5-5-5-5-3-3-3-3-5---bass---7-7-7-7-5-5-5-5-7--drum----|
|-5-5-5-5-3-3-3-3-5---solo-----------------------solo---5-5-5-5-3-3-3-3-5--solo----|

|-----------------------------------|---------------------------------|
|-----------------------------------|---------------------------------|
|-9-9-9-9-------9-9-7-7-7-7-7-7-7-7-|---------------------------------|
|-9-9-9-9-11-11-9-9-7-7-7-7-7-7-7-7-|-7-7-7-7-7-7-5-5-2-2-2-2-2-2-2-2-|
|-7-7-7-7-7--7--7-7-5-5-5-5-5-5-5-5-|-7-7-7-7-7-7-5-5-2-2-2-2-2-2-2-2-|
|-----------------------------------|-5-5-5-5-5-5-3-3-0-0-0-0-0-0-0-0-|

Verse

Chorus

Fill / Outro





Comments


Popular Nrok tabs & chords
Fucked Up Chords
All The Way Tabs
Best Friend Tabs
Game Of Death Tabs
No Tabs
Not Today Tabs
Say Sorry Tabs
The People Tabs
Things Have Changed Tabs
Victim Of Destiny Tabs


Song lyrics



↑ Back to top | Tablatures and chords are parodies/interpretations of the original songs. You may use it for private study, scholarship, research or language learning purposes only
© 2014 AZChords.com Contact us | Privacy policy | DMCA | Add/correct tabs | Request tabs | Top 50 tabs