>
 >
The People

The People Guitar Tabs

Nrok - The People chords, tabs, tablatures, lyrics

Guitar lessons | Add/correct | Request | Top 50 tabs Artists:  A B C D E F G H I J K L M N O P Q R S T U V W X Y Z 0-9

The People Guitar Tabs – Nrok

CD, Sheet music, Poster

Do you like The People? Share with your friends now
Tabs
THE PEOPLE


Intro

|----------------------------------------------|
|--palm---muted---palm---muted-----------------|
|-------------------------------9-9-9-7--9-9--|
|-2222-2222-2222-2222-2222-2222-9-9-9-7--9-9--| play 2x
|-2222-2222-2222-2222-2222-2222-7-7-7-5--7-7--|
|-0000-0000-0000-0000-0000-0000----------------|


Verse a

|--------------------------------------------------------------------------------------|
|-palm---muted---palm---muted---palm---muted---palm--muted--palm--muted----------------|
|-----------------------------------------------------------------------9-9-9-7--9-9--|
|-2222-2222-2222-2222-5555-5555-5555-5555-7777-7777-7777-7777-2222-2222-9-9-9-7--9-9--|
|-2222-2222-2222-2222-5555-5555-5555-5555-7777-7777-7777-7777-2222-2222-7-7-7-5--7-7--|
|-0000-0000-0000-0000-3333-3333-3333-3333-5555-5555-5555-5555-0000-0000----------------|
										       Play 2x

Verse b

|-------------------------------------------------------------------------------|
|-palm--muted--palm--muted--palm--muted--palm--muted--palm-muted----------------|
|-99999999-77777777-55555555-99999999-55555555-77777777-99999999-9-9-9-7--9-9-9-|
|-99999999-77777777-55555555-99999999-55555555-77777777-99999999-9-9-9-7--9-9-9-|
|-77777777-55555555-33333333-77777777-33333333-55555555-77777777-7-7-7-5--7-7-7-| play 2x
|-------------------------------------------------------------------------------|


Pre-Chorus

|-------------------|
|-------------------|
|-55555555----------|
|-55555555-77777777-|
|-33333333-77777777-|
|----------55555555-|


Chorus

|------------------------------------------------------------------|
|------------------------------------------------------------------|
|-----------------7-7-7-7---------5-5-5-5-7-7-7-7-------5----------|
|-2-2-2-2-5-5-5-5-7-7-7-7-7-7-7-7-5-5-5-5-7-7-7-7-2-2-2-5--2-2-2-2-|
|-2-2-2-2-5-5-5-5-5-5-5-5-7-7-7-7-3-3-3-3-5-5-5-5-2-2-2-3--2-2-2-2-| play 2x
|-0-0-0-0-3-3-3-3---------5-5-5-5-----------------0-0-0----0-0-0-0-|


Verse a (less muted)

Verse b (less muted)

Pre-Chorus

Chorus

Verse b (not muted at all) + guitar solo

Pre-Chorus


Fill

|-----------------------------------------|
|--palm--muted--palm--muted--palm--muted--|
|-----------------------------------------|
|-2222-2222-2222-2222-2222-2222-2222-2222-|
|-2222-2222-2222-2222-2222-2222-2222-2222-|
|-0000-0000-0000-0000-0000-0000-0000-0000-|


Verse a

Verse b

Pre-Chorus

Chorus (4x in total)


End

|--------------------|
|--------------------|
|--------------------|
|-7---5-----2~-------|
|-7---5-----2~-------|
|-5---3-----0~-------|
  No  thing yeah¡K¡K



LYRICS

THE PEOPLE

Verse 1 a)
We are the people that you hate
Because your thoughts are out of date
And you can¡t cope with that
We are the people that you find
In history and present times
And you can¡t cope with that

Verse 1 b)
All of your thinking had some value yesterday
But when you live in times like these it slips away
There are no answers to the questions that you asked
These answers you have lost them in the past

Chorus
Talk to me if you want to be a member of this world
Cause if you don¡t the lights go out and you¡ll have nothing
Hide from me if you don¡t want to see the development of life
But it won¡t help you and you¡ll end up with nothing

Verse 2 a)
We are the people that you need
During conflicts and political disease
But you don¡t want that
We are the people that are strong
Against the system which is wrong
But you don¡t want that

Verse 2 b)
When will you realize that your time it has run out
And that we are the ones to go on the street and shout
You can¡t cope with a world not satisfying you
That is why it¡s time for you to go

 Chorus

Interlude

Verse 3 a)
We are the people that will win
Against the bad and everything
And you will not like that
We are the people that will succeed
In the fight for justice and for peace
You will not like that

Verse 3 b)
The time will come when every thought about you¡s gone
And a new generation of brotherhood is born
Your criminality will be a part of history 
It¡s then time for the people to be free

 Chorus

Chorus 2
Yeah it¡s sure you¡re insecure once the power¡s off your side
And soon the lights go out and you¡ll have nothing
Let us pray for the world today, together, that¡s what we¡ll do
Then for us the lights stay on but you¡ll have nothing 4x





Comments


Popular Nrok tabs & chords
Fucked Up Chords
All The Way Tabs
Best Friend Tabs
Feedback Tabs
Game Of Death Tabs
Kommerz Tabs
No Tabs
Say Sorry Tabs
Victim Of Destiny Tabs
Who Needs A Woman Tabs


Song lyrics



↑ Back to top | Tablatures and chords are parodies/interpretations of the original songs. You may use it for private study, scholarship, research or language learning purposes only
© 2014 AZChords.com Contact us | Privacy policy | DMCA | Add/correct tabs | Request tabs | Top 50 tabs