>
 >
Say Sorry

Say Sorry Guitar Tabs

Nrok - Say Sorry chords, tabs, tablatures, lyrics

Guitar lessons | Add/correct | Request | Top 50 tabs Artists:  A B C D E F G H I J K L M N O P Q R S T U V W X Y Z 0-9

Say Sorry Guitar Tabs – Nrok

CD, Sheet music, Poster

Do you like Say Sorry? Share with your friends now
Tabs

All A parts acoustic
All B parts electric

Intro A

E|------------------------------------------|
B|------------------------------------------|
G|¢X---------11--11-11-11/13--13-13-9--9-9-9-|
D|¢X-7--7-7--9---9--9--9-/11--11-11-7--7-7-7-|
A|--7--7-7--7---7--7--7-/9---9--9--5--5-5-5-|
E|--5--5-5----------------------------------|

 _______________________________________
|                                    1. |
|---------------------------------------|
|---------------------------------------|
|--------11-11-11-11-9--9-9-9-9--9-9-9-¢X|
|-7--7-7-9--9--9--9--7--7-7-7-7--7-7-7-¢X|
|-7--7-7-7--7--7--7--5--5-5-5-5--5-5-5--|
|-5--5-5--------------------------------|

 ______________________________
|                           2. |
|------------------------------|
|------------------------------|
|--------9--9-9-7--7-7-7-7-7-7-|
|-7--7-7-7--7-7-7--7-7-7-7-7-7-|
|-7--7-7-5--5-5-5--5-5-5-5-5-5-|
|-5--5-5-----------------------|

Verse A

 Intro A


Chorus A

|-----------------------------------|
|-----------------------------------|
|¢X---------9-9-9-9---------7-7-7-7-¢X|
|¢X-7-7-7-7-9-9-9-9-9-9-9-9-7-7-7-7-¢X|
|--7-7-7-7-7-7-7-7-9-9-9-9-5-5-5-5--|
|--5-5-5-5---------7-7-7-7----------|

|--------------------------------------|
|--------------------------------------|
|-9-9-9--9-9-9--9-9-7------7--7-7--7-7-|
|-9-9-9--9-9-9--9-9-7------7--7-7--7-7-|
|-7-7-7--7-7-7--7-7-5------5--5-5--5-5-|
|--------------------------------------|

Fill A

 Intro A with 2nd ending

Verse A

 Verse A

Chorus A

 Chorus A

Outro A

 Intro A (play last chord several times)

Intro B

A  E  F  C  A  E  F  F

Verse B

A  E  F  C  A  E  F  D  A  E  F  C  A  E  F  F 


Chorus B (2x)

|---------------------------------------------|
|---------------------------------------------|
|---------------------10-10-10-10-10-10-10-10-|
|-7-7-7-7-10-10-10-10-10-10-10-10-10-10-10-10-|
|-7-7-7-7-10-10-10-10-8--8--8--8--8--8--8--8--|
|-5-5-5-5-8--8--8--8--------------------------|

|---------------------------------|
|---------------------------------|
|---------5-5-5-5-----------------|
|-7-7-7-7-5-5-5-5-3-3-3-3-3-3-3-3-|
|-7-7-7-7-3-3-3-3-3-3-3-3-3-3-3-3-|
|-5-5-5-5---------1-1-1-1-1-1-1-1-|

Fill B a)

 Intro B

Verse B

 Verse B

Chorus B

 Chorus B

Fill B b) (2x)

|-----------------------------------------|
|-----------------------------------------|
|-------------------10-10-10-10-9-9-------|
|-7-7-5-5-7-7-10-10-10-10-10-10-9-9-10-10-|
|-7-7-5-5-7-7-10-10-8--8--8--8--7-7-10-10-|
|-5-5-3-3-5-5-8--8------------------8--8--|

|---------------------------------------|
|---------------------------------------|
|-------------------10-10-10-10-9-9-9-9-|
|-7-7-5-5-7-7-10-10-10-10-10-10-9-9-9-9-|
|-7-7-5-5-7-7-10-10-8--8--8--8--7-7-7-7-|
|-5-5-3-3-5-5-8--8----------------------|

Chorus B

 Chorus B

Outro B

 Intro B





Comments


Popular Nrok tabs & chords
Fucked Up Chords
All The Way Tabs
Best Friend Tabs
Feedback Tabs
Kommerz Tabs
No Tabs
Not Today Tabs
The People Tabs
Victim Of Destiny Tabs
Who Needs A Woman Tabs


Song lyrics



↑ Back to top | Tablatures and chords are parodies/interpretations of the original songs. You may use it for private study, scholarship, research or language learning purposes only
© 2014 AZChords.com Contact us | Privacy policy | DMCA | Add/correct tabs | Request tabs | Top 50 tabs