» » »

Nrok, Not Today Tabs (ver.1)

Artists:  A B C D E F G H I J K L M N O P Q R S T U V W X Y Z # 

Not Today Tabs (ver.1)

Nrok Tabs
 Rating:
4/5 (4 votes)
Not Today lessons Tabs too difficult? Try these video lessons and learn fast
1
                Not today

Intro (guitar 1 // guitar 3)

E|-----------------------------|-----------------------------|-------------|
B|-------3-------------0-------|-------0---------------------|-------------|
G|°--------4-----------4-------|---------6-----------3h4----°|-------------|
D|°---4------------------5-----|----------------------------°|-4~~~--------|
A|-2---------2-0----5----------|----7------0------4--------0-|-4~~~--------|
E|---------------3---------3-4-|-5-----------3-2---------2---|-2~~~--------|
 |                             |                             |             |
 |-----------------------------|-12------------12------------|-------------|
 |-12--------------------------|-----------------------------|-------------|
 |---------------12------------|---------------------7-------|-------------|
 |-----------------------------|--9------------7-------------|-9-----------|
 |-----------------------------|-----------------------------|-------------|
 |-----------------------------|-----------------------------|-------------|
   ………………………………harmonics………………………………………………………………………………………………………………………………………

Underlined: both times
Straight:   1st time
Italic:     2nd time

Verse (guitar 1 // guitar 2 // guitar 3)
                                                             ______________
                                                            |after 4th time|
|-----------------------------|-----------------------------|--------------|
|-------3-------------0-------|-------0---------------------|--------------|
|°--------4-----------4-------|---------6-----------3h4----°|--------------|
|°---4------------------5-----|----------------------------°|-4~~~---------|
|-2---------2-0----5----------|----7------0------4--------0-|-4~~~---------|
|---------------3---------3-4-|-5-----------3-2---------2---|-2~~~---------|
|                             |                             |              |
|-----------------------------|-----------------------------|--------------|
|-7-------------------8-------|-------0-------------0h2-----|--------------|
|-------7----------7----7-----|----6----6--------3------3---|--------------|
|----9----9---75-------------|-7---------7---4-------------|-4------------|
|-----------------------------|-----------------------------|--------------|
|-----------------------------|-----------------------------|-----(2)------|
|                             |                             |              |
|-----------------------------|-12------------12------------|--------------|
|-12--------------------------|-----------------------------|--------------|
|---------------12------------|---------------------7-------|--------------|
|-----------------------------|--9------------7-------------|-9------------|
|-----------------------------|-----------------------------|--------------|
|-----------------------------|-----------------------------|--------------|
  ………………………………harmonics………………………………………………………………………………………………………………………………………… 

Fill 1 (guitar 1 // guitar 2)

|-------------------------|
|-------------------------|
|-------------------------|
|-5-5---------7-7---------|
|-5-5---------7-7---------|
|-3-3---------5-5---------|
|                         |
|-------------------------|
|-------------------------|
|-------------------------|
|------5-5---------7-7----|
|------5-5---------7-7----|
|------3-3---------5-5----|

Chorus (guitar 2 / guitar 1)

|----------------------------------|----------------------------------|
|----------------------------------|----------------------------------|
|°-4-4-4-4-------------------------|-4-4-4-4-------------------------°|
|°-4-4-4-4-5-5-5-5-7-7-7-7-4-4-5-5-|-4-4-4-4-5-5-5-5-2-2-2-2-7-7-4-4-°|
|--2-2-2-2-5-5-5-5-7-7-7-7-4-4-5-5-|-2-2-2-2-5-5-5-5-2-2-2-2-7-7-4-4--|
|----------3-3-3-3-5-5-5-5-2-2-3-3-|---------3-3-3-3-0-0-0-0-5-5-2-2--|
|                                  |                                  |
|----------------------------------|----------------------------------|
|----------------------------------|----------------------------------|
|°-4-4-xxx-------------------------|-4-4-xxx-------------------------°|
|°-4-4-xxx-5-5-xxx-7-7-xxx-4---5---|-4-4-xxx-5-5-xxx-2-2-xxx-7---4---°|
|--2-2-xxx-5-5-xxx-7-7-xxx-4---5---|-2-2-xxx-5-5-xxx-2-2-xxx-7---4----|
|----------3-3-xxx-5-5-xxx-2---3---|---------3-3-xxx-0-0-xxx-5---2----|

Fill 2 (guitar 2 // guitar 1)

|-----------------------------------|
|-----------------------------------|
|°-4-4-4-4-------------------------°|
|°-4-4-4-4-5-5-5-5-2-2-2-2-7-7-4-4-°|
|--2-2-2-2-5-5-5-5-2-2-2-2-7-7-4-4--|
|----------3-3-3-3-0-0-0-0-5-5-2-2--|
|                                   |
|-----------------------------------|
|-----------------------------------|
|°-4-4-xxx-------------------------°|
|°-4-4-xxx-5-5-xxx-2-2-xxx-7---4---°|
|--2-2-xxx-5-5-xxx-2-2-xxx-7---4----|
|----------3-3-xxx-0-0-xxx-5---2----|

Fill 3 (guitar 2 // guitar 1)
                                                   _________________ _____________
                                                  |              1. |          2. |
|-------------------------------------------------|-----------------|-------------|
|-------------------------------------------------|-----------------|-------------|
|°-4-4-4-4---------4-4-4-4---------4-4-4-4--------|----------------°|-------------|
|°-4-4-4-4---------4-4-4-4---------4-4-4-4--------|-5-5-5-4--4-4-4-°|-5-5-5-2~----|
|--2-2-2-2---------2-2-2-2---------2-2-2-2--------|-5-5-5-4--4-4-4--|-5-5-5-2~----|
|-------------------------------------------------|-3-3-3-2--2-2-2--|-3-3-3-0~----|
|                                                 |                 |             |
|------------7-7-------------7-7-------------7-7--|-----------------|-------------|
|------------7-7-------------7-7-------------7-7--|-----------------|-------------|
|°------------------------------------------------|----------------°|-------------|
|°------------------------------------------------|-5-----4--------°|-5-----2-----|
|--2-2-------------2-2-------------2-2------------|-5-----4---------|-5-----2-----|
|-------------------------------------------------|-3-----2---------|-3-----0-----|

Alternative Verse (4x) (guitar 2 // guitar 1)

|---------------------------------------------------|
|---------------------------------------------------|
|-4--4--4--4----------------------------------------|
|-4--4--4--4--5--5--5--5--7--7--7--7--4--4--4---4---|
|-2--2--2--2--5--5--5--5--7--7--7--7--4--4--4---4---|
|-------------3--3--3--3--5--5--5--5--2--2--2---2---|
|                                                   |
|---------------------------------------------------|
|---------------------------------------------------|
|---------------------------------------------------|
|-------4h5-5-------4h5-5-------4h5-5-------4h5p4---|
|-------------------------------------------------5-|
|-7-------------------------------------------------|

Chorus

Fill 2

Fill 3

Verse

Short pause in between

Fill 1

Alternative Verse + guitar solo (played by guitar 3)

Chorus

Fill 2

Fill 3

Alternative Verse / Outro
            
Submit corrections

comments powered by Disqus
↑ Back to top | Nrok Tabs for Not Today. Lyrics for acoustic guitar and electric guitar. 1 Tablatures and chords are parodies/interpretations of the original songs. You may use it for private study, scholarship, research or language learning purposes only