» » »

Nrok, No Tabs (ver.1)

Artists:  A B C D E F G H I J K L M N O P Q R S T U V W X Y Z # 

No Tabs (ver.1)

Nrok Tabs
Rating:
0/5 (0 votes)
No lessons Tabs too difficult? Try these video lessons and learn fast
                NO
By n’RoK

Intro

|------------------------------------------------------|
|------------------------------------------------------|
|----------555------777--------------555---------------|
|-777------555------777-5---777------555------333-5----|
|-777------333------555-5---777------333------333-5----|
|-555-------------------3---555---------------111-3----|

|------------------------------------------------------|
|------------------------------------------------------|
|----------555-xxxx-777--------------555-xxxx----------|
|-777-xxxx-555-xxxx-777-5-x-777-xxxx-555-xxxx-333-555--|
|-777-xxxx-333-xxxx-555-5-x-777-xxxx-333-xxxx-333-555--|
|-555-xxxx--------------3-x-555-xxxx----------111-333--|

||---------------------------------------------------||
||---------------------------------------------------||
|.--------55555-------77777-------55555--------------.|
|.--77777-55555-33333-77777-77777-55555-33333-55555--.|
||--77777-33333-33333-55555-77777-33333-33333-55555--||
||--55555-------11111-------55555-------11111-33333--||

Verse 1+2

|---------------------------------------------|
|---------------------------------------------|
|------------5-5--------7-7-------------------|
|-7-7--------5-5--------7-7-------5-----------|
|-7-7--------3-3--------5-5-------5-----------|
|-5-5-----------------------------3-----------|
|                                             |
|---------------------------------------------|
|---------------------------------------------|
|---------------------------------------------|
|---------------------------------------------|
|---------------------------------------------|
|-5p3h5--8x--8p5h8--4x--10p8h10p8-12p10h12p10-|

|---------------------------------------------|
|---------------------------------------------|
|------------5-5------------------------------|
|-7-7--------5-5--------3-3-------5-----------|
|-7-7--------3-3--------3-3-------5-----------|
|-5-5-------------------1-1-------3-----------|
|                                             |
|---------------------------------------------|
|---------------------------------------------|
|---------------------------------------------|
|---------------------------------------------|
|---------------------------------------------|
|-5p3h5--8x--8p5h8--4x--10p8h10p8-12p10h12p10-|

 repeat with palm mutes in between as in intro

Chorus

|---------------------------------|
|---------------------------------|
|---------------------------------|
|-3-3-3-3-3-3-3-3-5-5-5-5-5-5-5-5-|
|-3-3-3-3-3-3-3-3-5-5-5-5-5-5-5-5-|
|-1-1-1-1-1-1-1-1-3-3-3-3-3-3-3-3-|

||---------------------------------------------------||
||---------------------------------------------------||
|.--------55555-------77777-------55555--------------.|
|.--77777-55555-33333-77777-77777-55555-33333-55555--.|
||--77777-33333-33333-55555-77777-33333-33333-55555--||
||--55555-------11111-------55555-------11111-33333--||

Fill

|------------------------------------------------|
|------------------------------------------------|
|---------------------------5-5------------------|
|-7-7-------3-3-3-3-3-3-3-3-5-5-------5-5--------|
|-7-7-------3-3-3-3-3-3-3-3-3-3-------5-5--------|
|-5-5-------1-1-1-1-1-1-1-1-----------3-3--------|
|                                                |
|------------------------------------------------|
|------------------------------------------------|
|------------------------------------------------|
|------------------------------------------------|
|---------------------------3-3-3h5p3-----5p3----|
|-5-5-3h5p3-1---1---1-1-1-------------3-3----5p3-|
 
repeat 1x

Verse 3+4
As verse 1+2

Chorus
As chorus

Solo
As chorus

Fill
As fill

Bridge
 
 All palm muted – gradually release towards end of bridge
|---------------------------------|
|---------------------------------|
|---------------------------------|
|-7-7-7-7-7-7-7-7-3-3-3-3-5-5-5-5-|
|-7-7-7-7-7-7-7-7-3-3-3-3-5-5-5-5-|
|-5-5-5-5-5-5-5-5-1-1-1-1-3-3-3-3-|
 play 4 times

|---------------------------------|
|---------------------------------|
|---------------------------------|
|-7-7-7-7-7-7-7-7-3-3-3-3-5-5-5-5-|
|-7-7-7-7-7-7-7-7-3-3-3-3-5-5-5-5-|
|-5-5-5-5-5-5-5-5-1-1-1-1-3-3-3-3-|
|                                 |
|-5-5-------------1-------3-3-----|
|-5-5-------------1-------3-3-----|
|---------------------------------|
|---------------------------------|
|---------------------------------|
|---------------------------------|
 play 4 times

Chorus
As chorus

Chorus 
As chorus

Fill/Outro
As fill
4x in total
            
Submit corrections

comments powered by Disqus
↑ Back to top | Nrok Tabs for No. Lyrics for acoustic guitar and electric guitar. Tablatures and chords are parodies/interpretations of the original songs. You may use it for private study, scholarship, research or language learning purposes only