» » »

Nrok, Best Friend Tabs (ver.1)

Artists:  A B C D E F G H I J K L M N O P Q R S T U V W X Y Z # 

Best Friend Tabs (ver.1)

Nrok Tabs
 Rating:
4/5 (4 votes)
Best Friend lessons Tabs too difficult? Try these video lessons and learn fast
                BEST FRIEND

Intro

||---------------5--------------------------------|
||---------5h6------6---------1110---------------|
|.-----7-------7------7----10-------------10-9----|
|.---7---7---------------8-------------10------10-|
||-5---------------------------------8------------|
||------------------------------------------------|

|---------------5----------------------------||
|------------------6--------1---------3----5-||
|-----7---5h6--------7--------3-----5----5---.|
|---7---7-----7-----------3-------5----------.|
|-5---------------------1-------3------------||
|--------------------------------------------||


Verse

Like “Intro” (2x)


Chorus

||-----------------------------------------------------------------||
||-----------------------------------------------------------------||
|.-7-7-7-7-7-7-7-7-3-3-3-3-3-3-3-3-----------------5-5-5-5---------.|
|.-7-7-7-7-7-7-7-7-3-3-3-3-3-3-3-3-3-3-3-3-3-3-3-3-5-5-5-5-7--5--3-.|
||-5-5-5-5-5-5-5-5-1-1-1-1-1-1-1-1-3-3-3-3-3-3-3-3-3-3-3-3-7--5--3-||
||---------------------------------1-1-1-1-1-1-1-1---------5--3--1-||


Fill 1

|----------------------------------------------|
|----------------------------------------------|
|-7--7-7-5-3--3-3-----------------5--5-5-------|
|-7--7-7-5-3--3-3---%---3--3-3--3-5--5-5---%---|
|-5--5-5-3-1--1-1-------3--3-3--3-3--3-3-------|
|-----------------------1--1-1--1--------------|

|----------------------------------------------|
|----------------------------------------------|
|-7--7-7-5-3--3-3-------10-1010-7-5--5-5-------|
|-7--7-7-5-3--3-3---%---10-1010-7-5--5-5---%---|
|-5--5-5-3-1--1-1-------8--8-8--5-3--3-3-------|
|----------------------------------------------|


Fill 2

|---------------5--------------------------------|
|---------5h6------6---------1110---------------|
|-----7-------7------7----10-------------10-9----|
|---7---7---------------8-------------10------10-|
|-5---------------------------------8------------|
|------------------------------------------------|

|---------------5----------------------------|
|------------------6--------1---------3----5-|
|-----7---5h6--------7--------3-----5----5---|
|---7---7-----7-----------3-------5----------|
|-5---------------------1-------3------------|
|--------------------------------------------|


--> Verse

--> Chorus

--> Fill 1

--> Chorus

--> Fill 1 (2x)


Outro

Like “Intro”
            
Submit corrections

comments powered by Disqus
↑ Back to top | Nrok Tabs for Best Friend. Lyrics for acoustic guitar and electric guitar. Tablatures and chords are parodies/interpretations of the original songs. You may use it for private study, scholarship, research or language learning purposes only