>
 >
All The Way

All The Way Guitar Tabs

Nrok - All The Way chords, tabs, tablatures, lyrics

Guitar lessons | Add/correct | Request | Top 50 tabs Artists:  A B C D E F G H I J K L M N O P Q R S T U V W X Y Z 0-9

All The Way Guitar Tabs – Nrok

CD, Sheet music, Poster

Do you like All The Way? Share with your friends now
Tabs
ALL THE WAY

(Lalic/Schäfer)

Score for:	Guitar 1	Guitar 2

Intro

E|----------------------------------|
b|-------------------------10--10---|
g|---------------------------10--10-|
D|----------------------------------|
A|----------------------------------|
D|----------------------------------|
 |                                  |
E|----------------------------------|
B|----------------------------------|
G|----------------------------------|
d|-----0-------0-------0-------0----|
a|---0---0---0---0---0---0---0---0--|
D|-0-------0-------0-------0--------|

E|------------------------------------------| |------------------------------------------|
B|------------------------------------------| |------------------------------------------|
g|°----7-------10p9------------------------°| |°--------7---10p9----------10-9----------°|
d|°-----------------10-------10-------8p7--°| |°-----------------10----------------8p7--°|
a|----------------------------------------7-| |----------------------------------------7-|
D|-0-------------------10---------8---------| |-0-------------------10---------8---------|
 |                                          | |                                          |
E|------------------------------------------| |------------------------------------------|
B|------------------------------------------| |------------------------------------------|
G|°----------------------------------------°| |°----------------------------------------°|
d|°----0-------7-------------8------------7°| |°----0-------7-------------8------------7°|
a|---0---0---0------8-----12---12---8-7-----| |---0---0---0------8-----12---12---8-7-----|
D|-0-------0-----------10---------8---------| |-0-------0-----------10---------8---------|

Verse (play 4x)

E|------------------------------------------|
B|------------------------------------------|
g|---------7---10p9----------10-9-----------|
d|------------------10----------------8p7---|
a|----------------------------------------7-|
D|-0-------------------10---------8---------|
 |                                          |
E|------------------------------------------|
B|------------------------------------------|
G|------------------------------------------|
d|-----0-------7-------------8------------7-|
a|---0---0---0------8-----12---12---8-7-----|
D|-0-------0-----------10---------8---------|

Pre-chorus

E|--------------------------------------------|
B|--------------------------------------------|
G|--------------------------------------------|
d|---------10p8-10-8-10---------10p7-8p7------|
a|---------------------------------------10-8-|
D|-8--------------------7---------------------|
 |                                            |
E|--------------------------------------------|
B|--------------------------------------------|
g|---------------------------------------7~~~-|
d|-----8---10---8----8------7---10------------|
a|---8---8---------8------7---7------7--------|
D|-8--------------------7---------------------|

Chorus
                                             __________________________________________
                                            |                                       1. |
E|----------------------------------------| |------------------------------------------|
B|----------------------------------------| |-----------------------------13-10-13p10--|
g|°---------9---10--12----10----9-10-9h10-| |---------9---10--12----10----------------°|
D|°---------------------------------------| |-----------------------------------------°|
A|----------------------------------------| |------------------------------------------|
d|--0-------------------------------------| |-0----------------------------------------|
 |                                        | |                                          |
E|----------------------------------------| |------------------------------------------|
B|----------------------------------------| |------------------------------------------|
G|°---------------------------------------| |-----------------------------------------°|
D|°-0-0-0-0-0-0-0-0-10-10-10-10-8-8--8-8--| |-0-0-0-0-0-0-0-0-10-10-10-10-8--8--8--8--°|
a|--0-0-0-0-0-0-0-0-10-10-10-10-8-8--8-8--| |-0-0-0-0-0-0-0-0-10-10-10-10-8--8--8--8---|
d|--0-0-0-0-0-0-0-0-10-10-10-10-8-8--8-8--| |-0-0-0-0-0-0-0-0-10-10-10-10-8--8--8--8---|

  ___________________________________________
 |                                        2. |
E|-------------------------------------------|
b|-----------------13----10----11---10-------|
g|---------9---10----------------------12-10-|
D|-------------------------------------------|
A|-------------------------------------------|
D|-0-----------------------------------------|
 |                                           |
E|-------------------------------------------|
B|-------------------------------------------|
G|-------------------------------------------|
D|-0-0-0-0-0-0-0-0-10-10-10-10-8--8-8-----8--|
A|-0-0-0-0-0-0-0-0-10-10-10-10-8--8-8-----8--|
D|-0-0-0-0-0-0-0-0-10-10-10-10-8--8-8-----8--|

Verse 6x through

Pre-chorus 1x through

Chorus 2x through (2nd time + bottleneck-solo)

Verse 8x through (1st to 4th time + acoustic-solo)

Pre-chorus 1x through

Chorus 1x

Alternative Chorus
                                             __________________________________________
                                            |                                       1. |
E|----------------------------------------| |------------------------------------------|
B|----------------------------------------| |-----------------------------13-10-13p10--|
g|°---------9---10--12----10----9-10-9h10-| |---------9---10--12----10----------------°|
D|°---------------------------------------| |-----------------------------------------°|
A|----------------------------------------| |------------------------------------------|
d|--0-------------------------------------| |-0----------------------------------------|
 |                                        | |                                          |
E|--0-0-0-0-0-0-0-0-10-10-10-10-8-8--8-8--| |-----------------10-10-10-10-8--8--8--8---|
B|--3-3-3-3-3-3-3-3-13-13-13-13-8-8--8-8--| |-3-3-3-3-3-3-3-3-13-13-13-13-8--8--8--8---|
G|°-2-2-2-2-2-2-2-2-12-12-12-12-1010-1010-| |-2-2-2-2-2-2-2-2-12-12-12-12-10-10-10-10-°|
D|°-0-0-0-0-0-0-0-0-10-10-10-10-1010-1010-| |-0-0-0-0-0-0-0-0-10-10-10-10-10-10-10-10-°|
a|--0-0-0-0-0-0-0-0-10-10-10-10-8-8--8-8--| |-0-0-0-0-0-0-0-0-10-10-10-10-8--8---------|
d|--0-0-0-0-0-0-0-0-10-10-10-10-8-8--8-8--| |-0-0-0-0-0-0-0-0-10-10-10-10-8--8---------|

  ___________________________________________
 |                                        2. |
E|--------------------------------------------|
b|-----------------13----10----11----10-------|
g|---------9---10-----------------------12-10-|
D|--------------------------------------------|
A|--------------------------------------------|
D|-0------------------------------------------|
 |                                            |
E|-----------------10-10-10-10-8--8--8--8-----|
B|-3-3-3-3-3-3-3-3-13-13-13-13-8--8--8--8-----|
G|-2-2-2-2-2-2-2-2-12-12-12-12-10-10-10-10----|
D|-0-0-0-0-0-0-0-0-10-10-10-10-10-10-10-10----|
A|-0-0-0-0-0-0-0-0-10-10-10-10-8--8-----------|
D|-0-0-0-0-0-0-0-0-10-10-10-10-8--8-----------|

Outro

E|---------------------------------------------------|
b|--------------------------10-----------------------|
g|---------9---10--12-10-------12-10-9-12-10-9-------|
d|---------------------------------------------12-10-|
A|---------------------------------------------------|
D|-0-------------------------------------------------|
 |                                                   |
E|---------------------------------------------------|
B|---------------------------------------------------|
G|---------------------------------------------------|
D|-0-0-0-0-7-7-7-7-10-10-10-10-8-----8----8----8-----|
A|-0-0-0-0-0-0-8-8-10-10-10-10-8-----8----10---10----|
D|-0-0-0-0-0-0-0-0-10-10-10-10-8-----8----8----8-----|

E|--------------------------------------------|
B|--------------------------------------------|
g|-----------------------------------------11-|
D|-12------------------------------9-10-12----|
A|--------------------------------------------|
D|--------------------------------------------|
 |                                            |
E|--------------------------------------------|
B|--------------------------------------------|
G|--------------------------------------------|
D|-0-0-0-0-7-7-7-7-10-10-10-10-8-8-10---10----|
A|-0-0-0-0-0-0-8-8-10-10-10-10-8-8-8----8-----|
D|-0-0-0-0-0-0-0-0-10-10-10-10-8-8-8----8-----|

E|--------------------------------------------|
B|-10-----------------------------------------|
g|-----------------15-14----12h14p12-10-------|
d|--------------------------------------12p10-|
A|--------------------------------------------|
D|--------------------------------------------|
 |                                            |
E|--------------------------------------------|
B|--------------------------------------------|
G|--------------------------------------------|
D|-0-0-0-0-7-7-7-7-10-10-10-10-8--8--8---8----|
A|-0-0-0-0-0-0-8-8-10-10-10-10-8--8--10--10---|
D|-0-0-0-0-0-0-0-0-10-10-10-10-8--8--8---8----|


E|---------------------------------------| |---------------|
B|---------------------------------------| |---------------|
G|---------------------------------------| |---------------|
D|-12--------------10-----7--8p7---------| |---------------|
a|---------------------------------10-8/-| |-/17~~~~~~~~~~-|
D|---------------------------------------| |---------------|
 |                                       | |               |
E|---------------------------------------| |---------------|
B|---------------------------------------| |---------------|
G|---------------------------------------| |--10~~~~~~~~~~-|
D|-0-0-0-0-7-7-7-7-10-10-10-10-8-8-8--8--| |----0~~~~~~~~~-|
A|-0-0-0-0-0-0-8-8-10-10-10-10-8-8-8--8--| |-----0~~~~~~~~-|
D|-0-0-0-0-0-0-0-0-10-10-10-10-8-8-8--8--| |------0~~~~~~~-|





Comments


Popular Nrok tabs & chords
Fucked Up Chords
Best Friend Tabs
Game Of Death Tabs
Kommerz Tabs
No Tabs
Not Today Tabs
Say Sorry Tabs
The People Tabs
Things Have Changed Tabs
Who Needs A Woman Tabs


Song lyrics



↑ Back to top | Tablatures and chords are parodies/interpretations of the original songs. You may use it for private study, scholarship, research or language learning purposes only
© 2014 AZChords.com Contact us | Privacy policy | DMCA | Add/correct tabs | Request tabs | Top 50 tabs