» » »

Now Now, Thread Tabs (ver.2)

Artists:  A B C D E F G H I J K L M N O P Q R S T U V W X Y Z # 

Thread Tabs (ver.2)

Now Now Tabs
 Rating:
4/5 (4 votes)
Thread lessons Tabs too difficult? Try these video lessons and learn fast
                -------------------------------------------------------------------------------
                             THREAD - Now, now
-------------------------------------------------------------------------------

Tuning: Standard

00:00 - 00:29
e|----------------------------------------------------------------|
B|--------5--7----------------------------------------------------|
G|--6--7--7--7----------------------------------------------------| 2x
D|--7--0--0--0----------------------------------------------------|
A|--5-------------------------------------------------------------|
E|----------------------------------------------------------------|

00:29 - 00:57
e|----------------------------------------------------------------|
B|----------------------------------------------------------------|
G|--6--4--6-------------------------------------------------------| 2x
D|--7--0--7-------------------------------------------------------|
A|--5-----5-------------------------------------------------------|
E|----------------------------------------------------------------|

00:59 - 1:23
e|----------------------------------------------------------------|
B|----------------------------------------------------------------|
G|----------------------------------------------------------------| 2x
D|--7--11--7--7--4--2--4--7---------------------------------------|
A|--5---9--9--5--2--0--2--5---------------------------------------|
E|----------------------------------------------------------------|


2:15 Solo:
e|--------------------------------------------------------------14--14-------------|
B|------------------------------14--14--14--14--------------------------14--14-----|
G|--11--11--11--11--9--9--9--9--------------------------------------------------11-|
D|----------------------------------------------11--11--11--11---------------------|
A|---------------------------------------------------------------------------------|
E|---------------------------------------------------------------------------------|

-------------------------------------------------------|
-14----------14----------14----------14----------14----|
-----11--11------11--11------11--11------11--11--------| 3x
-------------------------------------------------------|
-------------------------------------------------------|
-------------------------------------------------------|

e|--------------------------------------------------------------14--14---------------|
B|------------------------------14--14--14--14--------------------------14--14-------|
G|--11--11--11--11--9--9--9--9-------------------------------------------------------|
D|----------------------------------------------11--11--11--11-----------------------|
A|-----------------------------------------------------------------------------------|
E|-----------------------------------------------------------------------------------|
            
Submit corrections

comments powered by Disqus
↑ Back to top | Now Now Tabs for Thread. Lyrics for acoustic guitar and electric guitar. Tablatures and chords are parodies/interpretations of the original songs. You may use it for private study, scholarship, research or language learning purposes only