» » »

Now Now, Lucie Too Tabs (ver.1)

Artists:  A B C D E F G H I J K L M N O P Q R S T U V W X Y Z # 

Lucie Too Tabs (ver.1)

Now Now Tabs
 Rating:
4/5 (4 votes)
Lucie Too lessons Tabs too difficult? Try these video lessons and learn fast
                -------------------------------------------------------------------------------
                                      LUCIE, TOO - Now Now
-------------------------------------------------------------------------------

PAY ATTENTION TO THE TUNING!!
The strumming patterns are all primarly down strokes. If you want to get a good
idea of the rhythm and when each part comes in, this is a pretty good live version:

Tuning: EAC#EBe

Intro: Guitar 1
e |-------------------------------------------------------------------| x3
B |-------------------------------------------------------------------|
E |-------------------------------------------------------------------|
C#|-------------------------------------------------------------------|
A |----7-------6-------2-------6-------7-------2-------6-------6------|
E |--9---9-9-7---7-7-4---4-4-7---7-7-9---9-9-4---4-4-7---7-7-7---7-7--|

Intro: Guitar 2                     
e |----------14-------12-----| x3   
B |-------12-------------16--|      
E |----12----------12--------|     
C#|-14----------14-----------|      
A |--------------------------|     
E |--------------------------|     

Verse: Synth (no guitar playing)

Chorus: Guitar 1
e |--------------------|-----------------|-----------------|------------------|
B |--------------------|-----------------|-----------------|------------------|
E |--------------------|-----------------|-----------------|------------------|
C#|--------------------|-----------------|-----------------|------------------|
A |-11-11-11-9-9-9-9-9-|-9-9-9-9-9-9-9-9-|-6-6-6-9-9-9-9-9-|-9-9-9-9-9-9-9-9--|
E |--9--9--9-7-7-7-7-7-|-7-7-7-7-7-7-7-7-|-4-4-4-7-7-7-7-7-|-7-7-7-7-7-7-7-7--|

e |--------------------|-----------------|--------------------|--------------------|
B |--------------------|-----------------|--------------------|--------------------|
E |--------------------|-----------------|--------------------|--------------------|
C#|--------------------|-----------------|--------------------|--------------------|
A |-11-11-11-9-9-9-9-9-|-9-9-9-9-9-9-9-9-|-11-11-11-6-6-6-6-6-|-6-6-6-6-6-6-6-6-6--|
E |--9--9--9-7-7-7-7-7-|-7-7-7-7-7-7-7-7-|--9--9--9-4-4-4-4-4-|-4-4-4-4-4-4-4-4-4--|

Chorus: Guitar 2
e |-0-0-0-0-0-0-0-0-|-0-0-0-0-0-0-0-0-|-----------------|------------------|
B |-4-4-4-4-4-4-4-4-|-4-4-4-4-4-4-4-4-|-----------0-----|-----0-------0----|
E |-4-4-4-4-4-4-4-4-|-4-4-4-4-4-4-4-4-|---0---2/4---4---|-4-------4-----5--|
C#|-----------------|-----------------|-2---2---------5-|---5---5---5------|
A |-----------------|-----------------|-----------------|------------------|
E |-----------------|-----------------|-----------------|------------------|

e |-----------------|------------------|
B |-----------0-----|-----0-------0----|
E |---0---2/4---4---|-4-------4-----5--|
C#|-2---2---------5-|---5---5---5------|
A |-----------------|------------------|
E |-----------------|------------------|

Post-chorus:
e |-------------------|
B |-------------------|
E |-------------------|
C#|-------------------|
A |---6---6---6---10--|
E |-0---0---0---9-----|

Verse: Synth (no guitar playing)
 
Pre-chorus:
e |--------------------------|-------------------------|-------------------------|------------------|
B |--------------------------|-------------------------|-------------------------|------------------|
E |-11-11-11--9--9--9-11-11--|-11-11-11-11-11-11-11-11-|-11-11-11--9--9--9-11-11-|-7-7-7-7-7-7-7-7--|
C#|-10-10-10-10-10-10-10-10--|-10-10-10-10-10-10-10-10-|-10-10-10-10-10-10-10-10-|---------9-9-9-9--|
A |--------------------------|-------------------------|-------------------------|------------------|
E |--------------------------|-------------------------|-------------------------|------------------|

Bridge:
e |-----------------|-----------------|-----------------|-----------------|
B |-----------------|-----------------|-----------------|-----------------|
E |-----------------|-----------------|-----------------|-----------------|
C#|-----------------|-7---7---7---7---|-5---5---5---5---|-5---5---5---5---|
A |---6---6---6---6-|---9---9---9---9-|---6---6---6---6-|---6---6---6---6-|
E |-0---0---0---0---|-----------------|-----------------|-----------------|

e |--------------------|--------------------|--------------------|-----------------|
B |--------------------|--------------------|--------------------|-----------------|
E |--------------------|--------------------|--------------------|-----------------|
C#|-------10-7------10-|-------10-7------10-|-------10-7------10-|-5---5---5---5---|
A |---6/9------9/11----|---6/9------9/11----|-6-6/9------9/11----|---6---6---6---6-|
E |-0------------------|-0------------------|--------------------|-----------------|

Chorus: Guitar 1
e |--------------------|-----------------|-----------------|------------------|
B |--------------------|-----------------|-----------------|------------------|
E |--------------------|-----------------|-----------------|------------------|
C#|--------------------|-----------------|-----------------|------------------|
A |-11-11-11-9-9-9-9-9-|-9-9-9-9-9-9-9-9-|-6-6-6-9-9-9-9-9-|-9-9-9-9-9-9-9-9--|
E |--9--9--9-7-7-7-7-7-|-7-7-7-7-7-7-7-7-|-4-4-4-7-7-7-7-7-|-7-7-7-7-7-7-7-7--|

e |--------------------|-----------------|--------------------|--------------------|
B |--------------------|-----------------|--------------------|--------------------|
E |--------------------|-----------------|--------------------|--------------------|
C#|--------------------|-----------------|--------------------|--------------------|
A |-11-11-11-9-9-9-9-9-|-9-9-9-9-9-9-9-9-|-11-11-11-6-6-6-6-6-|-6-6-6-6-6-6-6-6-6--|
E |--9--9--9-7-7-7-7-7-|-7-7-7-7-7-7-7-7-|--9--9--9-4-4-4-4-4-|-4-4-4-4-4-4-4-4-4--|

Chorus: Guitar 2
e |-0-0-0-0-0-0-0-0-|-0-0-0-0-0-0-0-0-|-----------------|------------------|
B |-4-4-4-4-4-4-4-4-|-4-4-4-4-4-4-4-4-|-----------0-----|-----0-------0----|
E |-4-4-4-4-4-4-4-4-|-4-4-4-4-4-4-4-4-|---0---2/4---4---|-4-------4-----5--|
C#|-----------------|-----------------|-2---2---------5-|---5---5---5------|
A |-----------------|-----------------|-----------------|------------------|
E |-----------------|-----------------|-----------------|------------------|

e |-----------------|------------------|
B |-----------0-----|-----0-------0----|
E |---0---2/4---4---|-4-------4-----5--|
C#|-2---2---------5-|---5---5---5------|
A |-----------------|------------------|
E |-----------------|------------------|

Outro:
e |-------------------|
B |-------------------|
E |-------------------|
C#|-------------------|
A |---6---6---6---10--|
E |-0---0---0---9-----|


That's it! Enjoy.
            
Submit corrections

comments powered by Disqus
↑ Back to top | Now Now Tabs for Lucie Too. Lyrics for acoustic guitar and electric guitar. Tablatures and chords are parodies/interpretations of the original songs. You may use it for private study, scholarship, research or language learning purposes only