» » »

Novembers Doom, Twilight Innocence Tabs (ver.3)

Artists:  A B C D E F G H I J K L M N O P Q R S T U V W X Y Z # 

Twilight Innocence Tabs (ver.3)

Novembers Doom Tabs
 Rating:
4/5 (4 votes)
Twilight Innocence lessons Tabs too difficult? Try these video lessons and learn fast
                i was getting sick and tired of the tabs other people have
submitted, the 2 are alright, but they are missing a lot.
i picked this up by ear and decided what the heck, its a fun
song to play. please note, this is my first ever tab i have 
written, so enjoy ! 

Ps. i have not included the little solo that is included in the
song, just because i cant be bothered to tab it out, in the future
i shall add it.


--->Shecterman101<---                       






                           INTRO/VERSE
  x2
E|-----------------------------------------------------0--------------|
B|--------1---0-----------3---1-----------1---0---3-------1---0-------|
G|------2---2---2-------2---2---2-------2---2---2---2---2---2---2-----|
D|----2-----------2---2-----------2---2---------------------------2---|
A|--0---------------0---------------0---------------------------------|
E|--------------------------------------------------------------------|

 x1
|----------------------------------------------------0-------------|
|--------1---0-----------3---1-----------1---0---3-------1---0-----|
|----2---------3-----2---------2-----2-------------------------2---|
|--3---3---3-----3-3---3---3-----3-3---3---3---3---3---3---3-----3-|
|------------------------------------------------------------------|
|------------------------------------------------------------------|

  x1
|-----------------------------------------------------0--------------|
|--------1---0-----------3---1-----------1---0---3-------1---0-------|
|------2---2---2-------2---2---2-------2---2---2---2---2---2---2-----|
|----2-----------2---2-----------2---2---------------------------2---|
|--0---------------0---------------0---------------------------------|
|--------------------------------------------------------------------|


|-------------------0------------------------------------3---3-----|
|-------1---0---3-------1---0--------------------3---5---5---5-----|
|---2-------------------------2------4---5---4-------------4---4---|
|-3---3---3---3---3---3---3-----3--5---5---5---5---5---5---------5-|
|------------------------------------------------------------------|
|------------------------------------------------------------------|

                                       "i wonder what she.."
|-----------------------------------------------------0--------------|
|--------1---0-----------3---1-----------1---0---3-------1---0-------|
|------2---2---2-------2---2---2-------2---2---2---2---2---2---2-----|
|----2-----------2---2-----------2---2---------------------------2---|
|--0---------------0---------------0---------------------------------|
|--------------------------------------------------------------------|

                                        "perhaps my arms.."
|-----------------------------------------------------0--------------|
|--------1---0-----------3---1-----------1---0---3-------1---0-------|
|------2---2---2-------2---2---2-------2---2---2---2---2---2---2-----|
|----2-----------2---2-----------2---2---------------------------2---|
|--0---------------0---------------0---------------------------------|
|--------------------------------------------------------------------|

                                        "all that love.."
|----------------------------------------------------0-------------|
|--------1---0-----------3---1-----------1---0---3-------1---0-----|
|----2---------3-----2---------2-----2-------------------------2---|
|--3---3---3-----3-3---3---3-----3-3---3---3---3---3---3---3-----3-|
|------------------------------------------------------------------|
|------------------------------------------------------------------|

                                         "peaceful sleep.."
|-----------------------------------------------------0--------------|
|--------1---0-----------3---1-----------1---0---3-------1---0-------|
|------2---2---2-------2---2---2-------2---2---2---2---2---2---2-----|
|----2-----------2---2-----------2---2---------------------------2---|
|--0---------------0---------------0---------------------------------|
|--------------------------------------------------------------------|

                   "day-y-y-y-y-y-y-y-y-y-y-y-y-y-y-y-y"
|-------------------0------------------------------------3---3-----|
|-------1---0---3-------1---0--------------------3---5---5---5-----|
|---2-------------------------2------4---5---4-------------4---4---|
|-3---3---3---3---3---3---3-----3--5---5---5---5---5---5---------5-|
|------------------------------------------------------------------|
|------------------------------------------------------------------|




                              CHORUS

listen for strumming), add pinky finger 3rd fret g string and e string, also 
listen for timing, not hard to hear.
  
     

    am
    |-0-|   |-0-|   |-0-|
    |-1-|   |-1-|   |-3-|
    |-2-|   |-2-|   |-4-|
    |-2-|   |-3-|   |-5-|----> do not add pinky for this chord. 
    |-0-|   |-0-|   |-0-|
    |---|   |---|   |---|




the rest of the song is the same, just place the
intro/verse before and after the chorus, and you'll
be good to play along with this song.
            
Submit corrections

comments powered by Disqus
↑ Back to top | Novembers Doom Tabs for Twilight Innocence. Lyrics for acoustic guitar and electric guitar. Tablatures and chords are parodies/interpretations of the original songs. You may use it for private study, scholarship, research or language learning purposes only