» » »

Twilight Innocence Tabs (ver.2)

Artists:  A B C D E F G H I J K L M N O P Q R S T U V W X Y Z # 

Twilight Innocence Tabs (ver.2)

Novembers Doom
Rating:
4/5 (1 vote)

Hard to play? Try these video lessons and learn fast.
                "Twilight Innocence"

ok, i dont know if its correct, but this is how i play it.
and it sounds pretty close.

e|-----------------------------------0------|
b|-------1-0--------3-1--------1-0-3---1-0--|
g|-----2----------2----------2--------------|
d|---2----------2----------2----------------|
a|-0----------0----------0------------------|
e|------------------------------------------|

e|-----------------------------------0------|
b|-------1-0--------3-1--------1-0-3---1-0--|
g|-----2----------2----------2--------------|
d|---2----------2----------2----------------|
a|-0----------0----------0------------------|
e|------------------------------------------|

e|-----------------------------------0------|
b|-------1-0--------3-1--------1-0-3---1-0--|
g|---2----------2----------2----------------|
d|-3---3------3---3------3---3--------------|
a|------------------------------------------|
e|------------------------------------------|

e|-----------------------------------0------|
b|-------1-0--------3-1--------1-0-3---1-0--|
g|-----2----------2----------2--------------|
d|---2----------2----------2----------------|
a|-0----------0----------0------------------|
e|------------------------------------------|

e|-------------0------------------3-3-------|
b|-------1-0-3---1-0--------3-1-3-----------|
g|---2------------------4-------------------|
d|-3---3--------------5---5-----------------|
a|------------------------------------------|
e|------------------------------------------|

now repeat this for verse, listen to see where you sing.

strum for chorus: Am, Am, open F, E and in the midst of 
       each add your pinky on the e string and on the 
       b string when playing the E chord.

Then in the strummed verse, i just go back and forth
       between Am and open F. It sounds good, but its
       not exact.
            
Hard to play? Try these video lessons and learn fast. | Correct




comments powered by Disqus
↑ Back to top | Tablatures and chords are parodies/interpretations of the original songs. You may use it for private study, scholarship, research or language learning purposes only