>
 >
Not The Stronglost In A Daydark Feilds For Brilliance

Not The Stronglost In A Daydark Feilds For Brilliance Guitar Tabs

Novembers Doom - Not The Stronglost In A Daydark Feilds For Brilliance chords, tabs, tablatures, lyrics

Guitar lessons | Add/correct | Request | Top 50 tabs Artists:  A B C D E F G H I J K L M N O P Q R S T U V W X Y Z 0-9

Not The Stronglost In A Daydark Feilds For Brilliance Guitar Tabs – Novembers Doom

CD, Sheet music, Poster

Do you like Not The Stronglost In A Daydark Feilds For Brilliance? Share with your friends now
Tabs
NOT THE STRONG - From: To Welcome the Fade

Gtr I (Bb F Bb Eb G C) 

4/4
Gtr I
Q S S S S Q
||---8--8--8--8--8--8-|
||o--9--9--9--9--9--8-|
||--10-10-10-10-10-10-|
||--10-10-10-10-10-10-|
||o--8--8--8--8--8--8-|
||--------------------|


S S S S Q S S S S Q S S S E S S S S E S S S S E S S
|--8--8--8--8--8--8--8--8--8--8---------------------------------|
|--8--8--8--8-11-11-11-11-11--9---------------------------------|
|-10-10-10-10--8--8--8--8--8--8--------7-7-------7-7-------7-7--|
|-10-10-10-10-10-10-10-10-10-10--------6-6-------6-6-------6-6--|
|--8--8--8--8--8--8--8--8--8--8--------5-5-------5-5-------5-5--|
|--------------------------------0-0-0-----0-0-0-----0-0-0-----0|


4.
S S E S S S S 3x Q S S S S Q S S S S
|----------------||--8---8--8--8--8--8---8--8--8--8-|
|---------------o||--9---9--9--9--9--8---8--8--8--8-|
|-----7-7--------||-10--10-10-10-10-10--10-10-10-10-|
|-----6-6--------||-10--10-10-10-10-10--10-10-10-10-|
|-----5-5-------o||--8---8--8--8--8--8---8--8--8--8-|
|-0-0-----0-0-0--||---------------------------------|


Q S S S S Q E S S S H E
|--8---8--8--8--8--8---8-----------|
|-11--11-11-11-11--9---9-----------|
|--8---8--8--8--8--8---8-------5---|
|-10--10-10-10-10-10--10-------5---|
|--8---8--8--8--8--8---8-------3---|
|------------------------0-0-0-----|


Q H H E E E E E E E E E E E E E E E E E E E E E E E E E E E E E
|----|-----||--------------------------------------------------------------|
|----|-----||o-------------------------------------------------------------|
|-5--|-8---||--6-6-6-6-6-6-6-6-6-6-6-6-6-6-6-6-6-6-----------------8h9-8---|
|-5--|-8-6-||--6-6-6-6-6-6-6-6-6-6-4-4-4-4-4-4-4-4-9-9-9-9-9-11-11-7---7-9-|
|-3--|-6-6-||o-4-4-4-4-4-0-0-0-0-0-4-4-4-4-4-4-4-4-7-7-7-7-7--7--7-7---7-7-|
|----|---6-||----------------------4-4-4-4-4-4-4-4-7-7-7-7-7--7--7-7---7-7-|


E E E E E E E E E E E E E E E E E E E E E E E E E E E E E E E E E
|-----------------|-----------------|-----------------------------------|
|-----------------|-----------------|-----------------------------------|
|-6-6-6-6-6-6-6-6-|-6-6-6-6-6-6-6-6-|-6-6-7-7-7-7-7-7-7-7-7-7-7-7-7-7-7-|
|-6-6-6-6-6-6-6-6-|-6-6-4-4-4-4-4-4-|-4-4-7-7-7-7-7-7-7-7-7-7-7-7-7-7-7-|
|-4-4-4-4-4-0-0-0-|-0-0-4-4-4-4-4-4-|-4-4-5-5-5-5-5-5-5-5-5-5-5-5-5-5-5-|
|-----------------|-----4-4-4-4-4-4-|-4-4-5-5-5-5-5-5-5-5-5-5-5-5-5-5-5-|


E E E E E E E E E E E E E E E E E E E E E E E E E E E E E E E E E
|-----------------|-----------------|-----------------------------------|
|-----------------|-----------------|-----------------------------------|
|-6-6-6-6-6-6-6-6-|-6-6-6-6-6-6-6-6-|-6-6-4-4-4-4-4-4-4-4-5-5-5-5-5-5-5-|
|-6-6-6-6-6-6-6-6-|-6-6-4-4-4-4-4-4-|-4-4-4-4-4-4-4-4-4-4-5-5-5-5-5-5-5-|
|-4-4-4-4-4-0-0-0-|-0-0-4-4-4-4-4-4-|-4-4-2-2-2-2-2-2-2-2-3-3-3-3-3-3-3-|
|-----------------|-----4-4-4-4-4-4-|-4-4-2-2-2-2-2-2-2-2-3-3-3-3-3-3-3-|


E E E E E E E E E E E E E E E E E E E E E E E E E E E E E E E
|-----------------|-----------------|-----------------|----------------|
|-----------------|-----------------|-----------------|----------------|
|-6-6-6-6-6-6-6-6-|-6-6-6-6-6-6-6-6-|-6-6-7-7-7-7-7-7-|-7-7-7-7-7-7-7--|
|-6-6-6-6-6-6-6-6-|-6-6-4-4-4-4-4-4-|-4-4-7-7-7-7-7-7-|-7-7-7-7-7-7-7--|
|-4-4-4-4-4-0-0-0-|-0-0-4-4-4-4-4-4-|-4-4-5-5-5-5-5-5-|-5-5-5-5-5-5-5--|
|-----------------|-----4-4-4-4-4-4-|-4-4-5-5-5-5-5-5-|-5-5-5-5-5-5-5--|


E E E E E E E E E E E E E E E E E E E E E E E E E E E E E E E E E E E
|-----------------------------------------------------------------------|
|-----------------------------------------------------------------------|
|-----------------------------------------------------------------------|
|-4-4-4-4-4-6-6-6-6-6-7-7-7-7-7-6-6-6-6-6-6-6-6-6-6---------------------|
|-5-5-5-5-5-5-5-5-5-5-5-5-5-5-5-5-5-5-5-5-4-4-4-4-4-7-7-7-7-6-6h7p6p4-4-|
|-0-0-0-0-0-0-0-0-0-0-0-0-0-0-0-0-0-0-0-0-4-4-4-4-4-4-4-4-4-4-4-4-4-4-4-|


E E E E E E E E E E E E E E E E E E E E E E E E E E E E E E E E E
|-----------------|-----------------|------------------------------------||
|-----------------|-----------------|-----------------------------------o||
|-----------------|-----------------|------------------------------------||
|-4-4-4-4-4-6-6-6-|-6-6-7-7-7-7-7-6-|-6-6-6-6-6-6-6-6-8-8-8-8-8-9-9-9-9--||
|-5-5-5-5-5-5-5-5-|-5-5-5-5-5-5-5-5-|-5-5-5-5-7-7-7-7-7-7-7-7-7-7-7-7-7-o||
|-0-0-0-0-0-0-0-0-|-0-0-0-0-0-0-0-0-|-0-0-0-0-0-0-0-0-0-0-0-0-0-0-0-0-0--||


E E 3x E E E E E E E E E E E E E E E E E E E E E E E E E E
||-----------||---------------------------------||----------------------|
||o---------o||---------------------------------||o---------------------|
||-----------||-9-9-9-9-9-9---------------------||----------------------|
||--1----2---||-7-7-7-7-----9-9-9-9-9-9-3-3-3-3-||----------------------|
||o-1----2--o||-7-7-7-7-7-7-7-7-7-7-7-7-3-3-3-3-||o---------------------|
||--1----2---||-7-7-7-7-6-6-6-6-5-5-5-5-3-3-3-3-||--0-0-0-0-0-0-0-0-0-0-|


E E E E E E E E E E E E E E E E E E E E E E E E E E E
|--------------------------||----------------|-----------------|
|--------------------------||o---------------|-----------------|
|--------------------------||----------------|-----------------|
|-----------------------6--||--4-4-4-4-6-6-6-|-6-6-7-7-7-7-7-6-|
|-3h5-5-5-5-6-5-3-5-3-0-6--||o-5-5-5-5-5-5-5-|-5-5-5-5-5-5-5-5-|
|-----------------------6--||--0-0-0-0-0-0-0-|-0-0-0-0-0-0-0-0-|


E E E E E E E E E E E E E E E E E E E
|-----------------|-----------------|---------|
|-----------------|-----------------|---------|
|-----------------|-----------------|---------|
|-6-6-6-6-6-6-6-6-|-6---------------|---------|
|-5-5-5-5-4-4-4-4-|-4-7-7-7-7-6-6h7p|=6p4-4---|
|-0-0-0-0-4-4-4-4-|-4-4-4-4-4-4-4-4-|-4-4-4---|


E E E E E E E E E E E E E E E E E E E E E E E E E E E E E E E E E 4x
|-----------------|-----------------|-----------------|-----------------|----
|-----------------|-----------------|-----------------|-----------------|---o
|-----------------|-----------------|-----------------|-----------------|----
|-4-4-4-4-4-6-6-6-|-6-6-7-7-7-7-7-6-|-6-6-6-6-6-6-6-6-|-8-8-8-8-8-9-9-9-|-9--
|-5-5-5-5-5-5-5-5-|-5-5-5-5-5-5-5-5-|-5-5-5-5-7-7-7-7-|-7-7-7-7-7-7-7-7-|-7-o
|-0-0-0-0-0-0-0-0-|-0-0-0-0-0-0-0-0-|-0-0-0-0-0-0-0-0-|-0-0-0-0-0-0-0-0-|-0--



--------------------------------------------------------------------------------

LOST IN A DAY - From: To Welcome the Fade

Gtr I (Bb F Bb Eb G C)
4/4
  Gtr I
  ~
|---------------||-----------------------------------------------------------
|---------------||o----------------------------------------------------------
|-4-------------||-----------------------------------------------------------
|---5-4-2-4b5r4-||--2-2-5-4-2-4b5r4-2-0-0-0-5-4-2-4b5r4-2-2-2-2-5-4-2-4b5r4-2
|---------------||o-2-2-2-2-2-2---2-2-0-0-0-0-0-0-0---0-0-3-3-3-3-3-3-3---3-3
|---------------||--2-2-2-2-2-2---2-2-0-0-0-0-0-0-0---0-0--------------------


|-------------------------|-------------------|
|-------------------------|-------------------|
|-------------------------|-------------------|
|-3-3-3-5-5-5-5-5-5-7-7-7-|-2-2-2-5-4-2-4b5r4-|
|-3-3-3-3-3-3-5-5-5-5-5-5-|-2-2-2-2-2-2-2---2-|
|-3-3-3-3-3-3-5-5-5-5-5-5-|-2-2-2-2-2-2-2---2-|


|-------------------|-----------------|----------|
|-------------------|-----------------|----------|
|-------------------|-----------------|----------|
|-2-0-0-0-5-4-2-4b5r|=4-2-2-2-2-5-4-2-|-4b5r4-2--|
|-2-0-0-0-0-0-0-0---|-0-0-3-3-3-3-3-3-|-3---3-3--|
|-2-0-0-0-0-0-0-0---|-0-0-------------|----------|


|----------------------------------||---|-------------7-|
|---------------------------------o||---|-------0-------|
|----------------------------------||---|-----5---5-----|
|----------------------------------||-1-|---7-------7---|
|-1-1-1-1-1-1-1-1-1-1-1-1-1-1-1-1-o||-1-|-0-------------|
|-1-1-1-1-1-1-1-1-1-1-1-1-1-1-1-1--||-1-|---------------|


|---------------------0-------------|-------------7---|---------------|
|-----------------------------------|-------0---------|---------------|
|-------7-----7-----7---7-----7-6---|-----5---5-------|-----7-----7---|
|-----7---7---5---5-------5---4---4-|---7-------7-----|---7---7---5---|
|---5-------5-5-3-----------3-5-----|-0---------------|-5-------5-5---|
|-5-----------5---------------------|---------------5-|-----------5---|


|-------------------------------|
|-------------------------------|
|-------5-----5-----------------|
|-----5---5---3-----------------|
|---3-------3-3-3-3-3-3-3-3-3-3-|
|-3-----------3-3-3-3-3-3-3-3-3-|


||------------------------------------------------|
||o-----------------------------------------------|
||--10-10-10-9-9-9--------------------------------|
||-----------7-7-7-10-10-9-9b10r7-----------------|
||o--8--8--8-7-7-7--7--7-7-7----7-5-5-5-5-5-5-5-5-|
||---7--7--7-7-7-7--7--7-7-7----7-5-5-5-5-5-5-5-5-|


|----------------------|---------------------------------------||
|----------------------|--------------------------------------o||
|-10-10-10-9-9-9-------|---------------------------------------||
|----------7-7-7-10-10-|-9-9b10r7-3-3-3-5-5-5-5-5-5-7-7-7-7-7--||
|--8--8--8-7-7-7--7--7-|-7-7----7-3-3-3-3-3-3-3-3-3-3-3-3-3-3-o||
|--7--7--7-7-7-7--7--7-|-7-7----7-3-3-3-3-3-3-3-3-3-3-3-3-3-3--||


|----------------------|--------------------|---------|
|----------------------|--------------------|---------|
|-10-10-10-9-9-9-------|--------------------|---------|
|----------7-7-7-10-10-|-9-9b10r7-----------|---------|
|--8--8--8-7-7-7--7--7-|-7-7----7-5-5-5-5-5-|-5-5-5---|
|--7--7--7-7-7-7--7--7-|-7-7----7-5-5-5-5-5-|-5-5-5---|


|----------------------|--------------------|-----------------|
|----------------------|--------------------|-----------------|
|-10-10-10-9-9-9-------|--------------------|-----------------|
|----------7-7-7-10-10-|-9-9b10r7-3-3-3-5-5-|-5-5-5-5-7-7-7-7-|
|--8--8--8-7-7-7--7--7-|-7-7----7-3-3-3-3-3-|-3-3-3-3-3-3-3-3-|
|--7--7--7-7-7-7--7--7-|-7-7----7-3-3-3-3-3-|-3-3-3-3-3-3-3-3-|


|---------------------|---------------------|----------|
|---------------------|---------------------|----------|
|---10-10-10-9-9-9----|---------------------|----------|
|-7----------7-7-7-10-|-10-9-9b10r7---------|----------|
|-3--8--8--8-7-7-7--7-|--7-7-7----7-5-5-5-5-|-5-5-5-5--|
|-3--7--7--7-7-7-7--7-|--7-7-7----7-5-5-5-5-|-5-5-5-5--|


|------------------------------------------------------------|---------------
|------------------------------------------------------------|---------------
|-12-12-12-11-11-11------------------------------------------|---------------
|-----------9--9--9-12-12-11-11b12r9-10-10-10-10-10-10-10-10-|-5---1---5---1-
|-10-10-10--9--9--9--9--9--9--9----9-10-10-10-10-10-10-10-10-|-5-5-1-5-5-5-1-
|--9--9--9--9--9--9--9--9--9--9----9-10-10-10-10-10-10-10-10-|-5-4-1-4-5-4-1-


|-------------0----|
|-------0----------|
|-----5---5--------|
|---7-------7------|
|-0----------------|
|------------------|

--------------------------------------------------------------------------------

DARK FIELDS FOR BRILLIANCE - From: To Welcome the Fade

Gtr I (Bb F Bb Eb G C)

   4/4
    Gtr I
                                                                      4x
||--------------------------------------------------------------------||
||o---8--------8--------8-------8-------7-------7-------7-------7----o||
||------9--------9--------9-------9-------8-------8-------6-------6---||
||--------10-------10-------9-------9-------9-------9-------7-------7-||
||o-7--------7--------7-------7-------6-------6-------5-------4------o||
||--------------------------------------------------------------------||


||-------------------------------------------------------------||
||o-----------------------------------------------------------o||
||----4-------4-------4-------4-------4-------4-------7-7-5-4--||
||------2-------2-------2-------2-------2-------2-----5-5-3-2--||
||o-3-----3-3-----3-3-----3-3-----3-0-----0-0-----0-0---------o||
||-------------------------------------------------------------||


|-----------------|-------------------------------------------------|
|-----------------|-------------------------------------------------|
|---4-------4-----|---4-------4-------------------------------------|
|-----2-------2---|-----2-------2---5-7-5-7-7-7-7-7-----------------|
|-3-----3-3-----3-|-3-----3-3-----3-5-5-5-5-5-5-5-5-0-0-0-0-0-0-0-0-|
|-----------------|-----------------5-5-5-5-5-5-5-5-0-0-0-0-0-0-0-0-|


|-----------------|----------------------------------------|
|-----------------|----------------------------------------|
|-----------------|-----------------10-9-10-9-2-7-7-7-7S9--|
|-3-5-3-5-5-5-5-5-|-3-5-3-5-5-5-5-5------------------------|
|-3-3-3-3-3-3-3-3-|-3-3-3-3-3-3-3-3--8-7--8-7-0-5-5-5-5S7--|
|-3-3-3-3-3-3-3-3-|-3-3-3-3-3-3-3-3--0-0--0-0-0------------|


|-----------------|-----------------------|
|-----------------|-----------------------|
|-----------------|-----------------7-----|
|-3-5-3-5-5-5-5-5-|-3-5-3-5-5-5-5-5---0-0-|
|-3-3-3-3-3-3-3-3-|-3-3-3-3-3-3-3-3-5-0-0-|
|-3-3-3-3-3-3-3-3-|-3-3-3-3-3-3-3-3---0-0-|


||--------------------|-----------------|-----------------|------------------
||o---8--------8------|---8-------8-----|---7-------7-----|---7-------7------
||------9--------9----|-----9-------9---|-----8-------8---|-----6-------6----
||--------10-------10-|-------9-------9-|-------9-------9-|-------7-------7--
||o-7--------7--------|-7-------7-------|-6-------6-------|-5-------4--------
||--------------------|-----------------|-----------------|------------------


||------------------|-----------------|-----------------|------------||
||o-----------------|-----------------|-----------------|-----------o||
||----4-------4-----|---4-------4-----|---4-------4-----|---7-7-5-4--||
||------2-------2---|-----2-------2---|-----2-------2---|---5-5-3-2--||
||o-3-----3-3-----3-|-3-----3-3-----3-|-0-----0-0-----0-|-0---------o||
||------------------|-----------------|-----------------|------------||


|-----------------|-----------------|-----------------|-----------------|
|-----------------|-----------------|-----------------|-----------------|
|---4-------4-----|---4-------4-----|-----------------|-----------------|
|-----2-------2---|-----2-------2---|-5-7-5-7-7-7-7-7-|-----------------|
|-3-----3-3-----3-|-3-----3-3-----3-|-5-5-5-5-5-5-5-5-|-0-0-0-0-0-0-0-0-|
|-----------------|-----------------|-5-5-5-5-5-5-5-5-|-0-0-0-0-0-0-0-0-|


|-----------------|-----------------|-------------------|-----|
|-----------------|-----------------|-------------------|-----|
|-----------------|-----------------|-10-9-10-9-2-7-7-7-|-7S9-|
|-3-5-3-5-5-5-5-5-|-3-5-3-5-5-5-5-5-|-------------------|-----|
|-3-3-3-3-3-3-3-3-|-3-3-3-3-3-3-3-3-|--8-7--8-7-0-5-5-5-|-5S7-|
|-3-3-3-3-3-3-3-3-|-3-3-3-3-3-3-3-3-|--0-0--0-0-0-------|-----|


|-----------------|-----------------|---------------|
|-----------------|-----------------|---------------|
|-----------------|-----------------|-7-----2-3-2S5-|
|-3-5-3-5-5-5-5-5-|-3-5-3-5-5-5-5-5-|---0-0---------|
|-3-3-3-3-3-3-3-3-|-3-3-3-3-3-3-3-3-|-5-0-0-0-1-0S3-|
|-3-3-3-3-3-3-3-3-|-3-3-3-3-3-3-3-3-|---0-0---------|


|-----------------|-----------------|-------------------|-----|
|-----------------|-----------------|-------------------|-----|
|-----------------|-----------------|-10-9-10-9-2-7-7-7-|-7S9-|
|-3-5-3-5-5-5-5-5-|-3-5-3-5-5-5-5-5-|-------------------|-----|
|-3-3-3-3-3-3-3-3-|-3-3-3-3-3-3-3-3-|--8-7--8-7-0-5-5-5-|-5S7-|
|-3-3-3-3-3-3-3-3-|-3-3-3-3-3-3-3-3-|--0-0--0-0-0-------|-----|


|-----------------|-----------------|-------|
|-----------------|-----------------|-------|
|-----------------|-----------------|-7-----|
|-3-5-3-5-5-5-5-5-|-3-5-3-5-5-5-5-5-|---0-0-|
|-3-3-3-3-3-3-3-3-|-3-3-3-3-3-3-3-3-|-5-0-0-|
|-3-3-3-3-3-3-3-3-|-3-3-3-3-3-3-3-3-|---0-0-|


                                                 3x
||-----------------------------------------------||
||o-------1-----3-1-----0h1---1-----0h1---1-----o||
||------2---2---0---0---2-------2---2-------2----||
||----2-------2-2-----3-3---3-----3-3---3-----3--||
||o-0-----------3-------3-----------3-----------o||
||-----------------------------------------------||


|-----------------|---------------------------|
|-------1-----3-1-|-----0h1---1-----0h1-1-----|
|-----2---2---0---|-0---2-------2---0-----0---|
|---2-------2-2---|---3-3---3-----3-2-------2-|
|-0-----------3---|-----3-----------2---------|
|-----------------|---------------------------|


||--------------------------------------------------------|
||o-------------------------------------------------------|
||--------------------------------------------------------|
||----------------------------------9-10-9-10-10-10-10-10-|
||o-3-3-3-3-3-3-3-3-3-3-3-3-3-3-3-3-7--7-7--7--7--7--7--7-|
||--3-3-3-3-3-3-3-3-3-3-3-3-3-3-3-3-7--7-7--7--7--7--7--7-|


|----------------------|
|----------------------|
|----------------------|
|-9-10-9-10-10-10-10-10|
|-7--7-7--7--7--7--7--7|
|-7--7-7--7--7--7--7--7|


|-----------------|------------------------------------------------------||
|-----------------|-----------------------------------------------------o||
|-----------------|------------------------------------------------------||
|-----------------|------------------------------------------------------||
|-3-3-3-3-3-3-3-3-|-3-3-3-3-3-3-3-3-2-2-2-2-2-2-2-2-3-3-3-3-3-3-3-3-3-3-o||
|-3-3-3-3-3-3-3-3-|-3-3-3-3-3-3-3-3-2-2-2-2-2-2-2-2-3-3-3-3-3-3-3-3-3-3--||





Comments


Popular Novembers Doom tabs & chords
Autumn Reflection Intro Tabs
Dark Feilds For Brilliance Tabs
Leaving This Tabs
Lost In A Day Tabs
Suffer The Red Dream Intro Tabs
Torn Tabs
Torn Intro Tabs
Twilight Innocence Tabs
With Rue Fire Intro Tabs
Within My Flesh Intro Tabs


Song lyrics



↑ Back to top | Tablatures and chords are parodies/interpretations of the original songs. You may use it for private study, scholarship, research or language learning purposes only
© 2014 AZChords.com Contact us | Privacy policy | DMCA | Add/correct tabs | Request tabs | Top 50 tabs