» » »

Not The Strong Tabs (ver.1)

Artists:  A B C D E F G H I J K L M N O P Q R S T U V W X Y Z # 

Not The Strong Tabs (ver.1)

Novembers Doom
Rating:
0/5 (0 votes)

Hard to play? Try these video lessons and learn fast.
                NOT THE STRONG - From: To Welcome the Fade

Gtr I (Bb F Bb Eb G C) 

4/4
Gtr I
Q S S S S Q
||---8--8--8--8--8--8-|
||o--9--9--9--9--9--8-|
||--10-10-10-10-10-10-|
||--10-10-10-10-10-10-|
||o--8--8--8--8--8--8-|
||--------------------|


S S S S Q S S S S Q S S S E S S S S E S S S S E S S
|--8--8--8--8--8--8--8--8--8--8---------------------------------|
|--8--8--8--8-11-11-11-11-11--9---------------------------------|
|-10-10-10-10--8--8--8--8--8--8--------7-7-------7-7-------7-7--|
|-10-10-10-10-10-10-10-10-10-10--------6-6-------6-6-------6-6--|
|--8--8--8--8--8--8--8--8--8--8--------5-5-------5-5-------5-5--|
|--------------------------------0-0-0-----0-0-0-----0-0-0-----0|


4.
S S E S S S S 3x Q S S S S Q S S S S
|----------------||--8---8--8--8--8--8---8--8--8--8-|
|---------------o||--9---9--9--9--9--8---8--8--8--8-|
|-----7-7--------||-10--10-10-10-10-10--10-10-10-10-|
|-----6-6--------||-10--10-10-10-10-10--10-10-10-10-|
|-----5-5-------o||--8---8--8--8--8--8---8--8--8--8-|
|-0-0-----0-0-0--||---------------------------------|


Q S S S S Q E S S S H E
|--8---8--8--8--8--8---8-----------|
|-11--11-11-11-11--9---9-----------|
|--8---8--8--8--8--8---8-------5---|
|-10--10-10-10-10-10--10-------5---|
|--8---8--8--8--8--8---8-------3---|
|------------------------0-0-0-----|


Q H H E E E E E E E E E E E E E E E E E E E E E E E E E E E E E
|----|-----||--------------------------------------------------------------|
|----|-----||o-------------------------------------------------------------|
|-5--|-8---||--6-6-6-6-6-6-6-6-6-6-6-6-6-6-6-6-6-6-----------------8h9-8---|
|-5--|-8-6-||--6-6-6-6-6-6-6-6-6-6-4-4-4-4-4-4-4-4-9-9-9-9-9-11-11-7---7-9-|
|-3--|-6-6-||o-4-4-4-4-4-0-0-0-0-0-4-4-4-4-4-4-4-4-7-7-7-7-7--7--7-7---7-7-|
|----|---6-||----------------------4-4-4-4-4-4-4-4-7-7-7-7-7--7--7-7---7-7-|


E E E E E E E E E E E E E E E E E E E E E E E E E E E E E E E E E
|-----------------|-----------------|-----------------------------------|
|-----------------|-----------------|-----------------------------------|
|-6-6-6-6-6-6-6-6-|-6-6-6-6-6-6-6-6-|-6-6-7-7-7-7-7-7-7-7-7-7-7-7-7-7-7-|
|-6-6-6-6-6-6-6-6-|-6-6-4-4-4-4-4-4-|-4-4-7-7-7-7-7-7-7-7-7-7-7-7-7-7-7-|
|-4-4-4-4-4-0-0-0-|-0-0-4-4-4-4-4-4-|-4-4-5-5-5-5-5-5-5-5-5-5-5-5-5-5-5-|
|-----------------|-----4-4-4-4-4-4-|-4-4-5-5-5-5-5-5-5-5-5-5-5-5-5-5-5-|


E E E E E E E E E E E E E E E E E E E E E E E E E E E E E E E E E
|-----------------|-----------------|-----------------------------------|
|-----------------|-----------------|-----------------------------------|
|-6-6-6-6-6-6-6-6-|-6-6-6-6-6-6-6-6-|-6-6-4-4-4-4-4-4-4-4-5-5-5-5-5-5-5-|
|-6-6-6-6-6-6-6-6-|-6-6-4-4-4-4-4-4-|-4-4-4-4-4-4-4-4-4-4-5-5-5-5-5-5-5-|
|-4-4-4-4-4-0-0-0-|-0-0-4-4-4-4-4-4-|-4-4-2-2-2-2-2-2-2-2-3-3-3-3-3-3-3-|
|-----------------|-----4-4-4-4-4-4-|-4-4-2-2-2-2-2-2-2-2-3-3-3-3-3-3-3-|


E E E E E E E E E E E E E E E E E E E E E E E E E E E E E E E
|-----------------|-----------------|-----------------|----------------|
|-----------------|-----------------|-----------------|----------------|
|-6-6-6-6-6-6-6-6-|-6-6-6-6-6-6-6-6-|-6-6-7-7-7-7-7-7-|-7-7-7-7-7-7-7--|
|-6-6-6-6-6-6-6-6-|-6-6-4-4-4-4-4-4-|-4-4-7-7-7-7-7-7-|-7-7-7-7-7-7-7--|
|-4-4-4-4-4-0-0-0-|-0-0-4-4-4-4-4-4-|-4-4-5-5-5-5-5-5-|-5-5-5-5-5-5-5--|
|-----------------|-----4-4-4-4-4-4-|-4-4-5-5-5-5-5-5-|-5-5-5-5-5-5-5--|


E E E E E E E E E E E E E E E E E E E E E E E E E E E E E E E E E E E
|-----------------------------------------------------------------------|
|-----------------------------------------------------------------------|
|-----------------------------------------------------------------------|
|-4-4-4-4-4-6-6-6-6-6-7-7-7-7-7-6-6-6-6-6-6-6-6-6-6---------------------|
|-5-5-5-5-5-5-5-5-5-5-5-5-5-5-5-5-5-5-5-5-4-4-4-4-4-7-7-7-7-6-6h7p6p4-4-|
|-0-0-0-0-0-0-0-0-0-0-0-0-0-0-0-0-0-0-0-0-4-4-4-4-4-4-4-4-4-4-4-4-4-4-4-|


E E E E E E E E E E E E E E E E E E E E E E E E E E E E E E E E E
|-----------------|-----------------|------------------------------------||
|-----------------|-----------------|-----------------------------------o||
|-----------------|-----------------|------------------------------------||
|-4-4-4-4-4-6-6-6-|-6-6-7-7-7-7-7-6-|-6-6-6-6-6-6-6-6-8-8-8-8-8-9-9-9-9--||
|-5-5-5-5-5-5-5-5-|-5-5-5-5-5-5-5-5-|-5-5-5-5-7-7-7-7-7-7-7-7-7-7-7-7-7-o||
|-0-0-0-0-0-0-0-0-|-0-0-0-0-0-0-0-0-|-0-0-0-0-0-0-0-0-0-0-0-0-0-0-0-0-0--||


E E 3x E E E E E E E E E E E E E E E E E E E E E E E E E E
||-----------||---------------------------------||----------------------|
||o---------o||---------------------------------||o---------------------|
||-----------||-9-9-9-9-9-9---------------------||----------------------|
||--1----2---||-7-7-7-7-----9-9-9-9-9-9-3-3-3-3-||----------------------|
||o-1----2--o||-7-7-7-7-7-7-7-7-7-7-7-7-3-3-3-3-||o---------------------|
||--1----2---||-7-7-7-7-6-6-6-6-5-5-5-5-3-3-3-3-||--0-0-0-0-0-0-0-0-0-0-|


E E E E E E E E E E E E E E E E E E E E E E E E E E E
|--------------------------||----------------|-----------------|
|--------------------------||o---------------|-----------------|
|--------------------------||----------------|-----------------|
|-----------------------6--||--4-4-4-4-6-6-6-|-6-6-7-7-7-7-7-6-|
|-3h5-5-5-5-6-5-3-5-3-0-6--||o-5-5-5-5-5-5-5-|-5-5-5-5-5-5-5-5-|
|-----------------------6--||--0-0-0-0-0-0-0-|-0-0-0-0-0-0-0-0-|


E E E E E E E E E E E E E E E E E E E
|-----------------|-----------------|---------|
|-----------------|-----------------|---------|
|-----------------|-----------------|---------|
|-6-6-6-6-6-6-6-6-|-6---------------|---------|
|-5-5-5-5-4-4-4-4-|-4-7-7-7-7-6-6h7p|=6p4-4---|
|-0-0-0-0-4-4-4-4-|-4-4-4-4-4-4-4-4-|-4-4-4---|


E E E E E E E E E E E E E E E E E E E E E E E E E E E E E E E E E 4x
|-----------------|-----------------|-----------------|-----------------|----
|-----------------|-----------------|-----------------|-----------------|---o
|-----------------|-----------------|-----------------|-----------------|----
|-4-4-4-4-4-6-6-6-|-6-6-7-7-7-7-7-6-|-6-6-6-6-6-6-6-6-|-8-8-8-8-8-9-9-9-|-9--
|-5-5-5-5-5-5-5-5-|-5-5-5-5-5-5-5-5-|-5-5-5-5-7-7-7-7-|-7-7-7-7-7-7-7-7-|-7-o
|-0-0-0-0-0-0-0-0-|-0-0-0-0-0-0-0-0-|-0-0-0-0-0-0-0-0-|-0-0-0-0-0-0-0-0-|-0--



--------------------------------------------------------------------------------
            
Hard to play? Try these video lessons and learn fast. | Correct




comments powered by Disqus
↑ Back to top | Tablatures and chords are parodies/interpretations of the original songs. You may use it for private study, scholarship, research or language learning purposes only