>
 >
Lost In A Day

Lost In A Day Guitar Tabs

Novembers Doom - Lost In A Day chords, tabs, tablatures, lyrics

Guitar lessons | Add/correct | Request | Top 50 tabs Artists:  A B C D E F G H I J K L M N O P Q R S T U V W X Y Z 0-9

Lost In A Day Guitar Tabs – Novembers Doom

CD, Sheet music, Poster

Do you like Lost In A Day? Share with your friends now
Tabs
|---------------||------------------------------------------------------------|
|---------------||o-----------------------------------------------------------|
|-4-------------||------------------------------------------------------------|
|---5-4-2-4b5r4-||--2-2-5-4-2-4b5r4-2-0-0-0-5-4-2-4b5r4-2-2-2-2-5-4-2-4b5r4-2-|
|---------------||o-2-2-2-2-2-2---2-2-0-0-0-0-0-0-0---0-0-3-3-3-3-3-3-3---3-3-|
|---------------||--2-2-2-2-2-2---2-2-0-0-0-0-0-0-0---0-0---------------------|


|-------------------------|-------------------|
|-------------------------|-------------------|
|-------------------------|-------------------|
|-3-3-3-5-5-5-5-5-5-7-7-7-|-2-2-2-5-4-2-4b5r4-|
|-3-3-3-3-3-3-5-5-5-5-5-5-|-2-2-2-2-2-2-2---2-|
|-3-3-3-3-3-3-5-5-5-5-5-5-|-2-2-2-2-2-2-2---2-|


|-------------------|-----------------|----------|
|-------------------|-----------------|----------|
|-------------------|-----------------|----------|
|-2-0-0-0-5-4-2-4b5r|=4-2-2-2-2-5-4-2-|-4b5r4-2--|
|-2-0-0-0-0-0-0-0---|-0-0-3-3-3-3-3-3-|-3---3-3--|
|-2-0-0-0-0-0-0-0---|-0-0-------------|----------|


|----------------------------------||---|-------------7-|
|---------------------------------o||---|-------0-------|
|----------------------------------||---|-----5---5-----|
|----------------------------------||-1-|---7-------7---|
|-1-1-1-1-1-1-1-1-1-1-1-1-1-1-1-1-o||-1-|-0-------------|
|-1-1-1-1-1-1-1-1-1-1-1-1-1-1-1-1--||-1-|---------------|


|---------------------0-------------|-------------7---|---------------|
|-----------------------------------|-------0---------|---------------|
|-------7-----7-----7---7-----7-6---|-----5---5-------|-----7-----7---|
|-----7---7---5---5-------5---4---4-|---7-------7-----|---7---7---5---|
|---5-------5-5-3-----------3-5-----|-0---------------|-5-------5-5---|
|-5-----------5---------------------|---------------5-|-----------5---|


|-------------------------------|
|-------------------------------|
|-------5-----5-----------------|
|-----5---5---3-----------------|
|---3-------3-3-3-3-3-3-3-3-3-3-|
|-3-----------3-3-3-3-3-3-3-3-3-|


||------------------------------------------------|
||o-----------------------------------------------|
||--10-10-10-9-9-9--------------------------------|
||-----------7-7-7-10-10-9-9b10r7-----------------|
||o--8--8--8-7-7-7--7--7-7-7----7-5-5-5-5-5-5-5-5-|
||---7--7--7-7-7-7--7--7-7-7----7-5-5-5-5-5-5-5-5-|


|----------------------|---------------------------------------||
|----------------------|--------------------------------------o||
|-10-10-10-9-9-9-------|---------------------------------------||
|----------7-7-7-10-10-|-9-9b10r7-3-3-3-5-5-5-5-5-5-7-7-7-7-7--||
|--8--8--8-7-7-7--7--7-|-7-7----7-3-3-3-3-3-3-3-3-3-3-3-3-3-3-o||
|--7--7--7-7-7-7--7--7-|-7-7----7-3-3-3-3-3-3-3-3-3-3-3-3-3-3--||


|----------------------|--------------------|---------|
|----------------------|--------------------|---------|
|-10-10-10-9-9-9-------|--------------------|---------|
|----------7-7-7-10-10-|-9-9b10r7-----------|---------|
|--8--8--8-7-7-7--7--7-|-7-7----7-5-5-5-5-5-|-5-5-5---|
|--7--7--7-7-7-7--7--7-|-7-7----7-5-5-5-5-5-|-5-5-5---|


|----------------------|--------------------|-----------------|
|----------------------|--------------------|-----------------|
|-10-10-10-9-9-9-------|--------------------|-----------------|
|----------7-7-7-10-10-|-9-9b10r7-3-3-3-5-5-|-5-5-5-5-7-7-7-7-|
|--8--8--8-7-7-7--7--7-|-7-7----7-3-3-3-3-3-|-3-3-3-3-3-3-3-3-|
|--7--7--7-7-7-7--7--7-|-7-7----7-3-3-3-3-3-|-3-3-3-3-3-3-3-3-|


|---------------------|---------------------|----------|
|---------------------|---------------------|----------|
|---10-10-10-9-9-9----|---------------------|----------|
|-7----------7-7-7-10-|-10-9-9b10r7---------|----------|
|-3--8--8--8-7-7-7--7-|--7-7-7----7-5-5-5-5-|-5-5-5-5--|
|-3--7--7--7-7-7-7--7-|--7-7-7----7-5-5-5-5-|-5-5-5-5--|


|------------------------------------------------------------|---------------|
|------------------------------------------------------------|---------------|
|-12-12-12-11-11-11------------------------------------------|---------------|
|-----------9--9--9-12-12-11-11b12r9-10-10-10-10-10-10-10-10-|-5---1---5---1-|
|-10-10-10--9--9--9--9--9--9--9----9-10-10-10-10-10-10-10-10-|-5-5-1-5-5-5-1-|
|--9--9--9--9--9--9--9--9--9--9----9-10-10-10-10-10-10-10-10-|-5-4-1-4-5-4-1-|


|-------------0----|
|-------0----------|
|-----5---5--------|
|---7-------7------|
|-0----------------|





Comments


Popular Novembers Doom tabs & chords
Dark Feilds For Brilliance Tabs
Leaving This Tabs
Leaving This Intro Tabs
Not The Strong Tabs
Not The Stronglost In A Daydark Feilds For Brilliance Tabs
Swallowed By The Moon Tabs
Torn Tabs
Twilight Innocence Tabs
Twilight Innocence Intro Tabs
Within My Flesh Intro Tabs


Song lyrics



↑ Back to top | Tablatures and chords are parodies/interpretations of the original songs. You may use it for private study, scholarship, research or language learning purposes only
© 2014 AZChords.com Contact us | Privacy policy | DMCA | Add/correct tabs | Request tabs | Top 50 tabs