>
 >
Dark Feilds For Brilliance

Dark Feilds For Brilliance Guitar Tabs

Novembers Doom - Dark Feilds For Brilliance chords, tabs, tablatures, lyrics

Guitar lessons | Add/correct | Request | Top 50 tabs Artists:  A B C D E F G H I J K L M N O P Q R S T U V W X Y Z 0-9

Dark Feilds For Brilliance Guitar Tabs – Novembers Doom

CD, Sheet music, Poster

Do you like Dark Feilds For Brilliance? Share with your friends now
Tabs
DARK FIELDS FOR BRILLIANCE - From: To Welcome the Fade

Gtr I (Bb F Bb Eb G C)

   4/4
    Gtr I
                                                                      4x
||--------------------------------------------------------------------||
||o---8--------8--------8-------8-------7-------7-------7-------7----o||
||------9--------9--------9-------9-------8-------8-------6-------6---||
||--------10-------10-------9-------9-------9-------9-------7-------7-||
||o-7--------7--------7-------7-------6-------6-------5-------4------o||
||--------------------------------------------------------------------||


||-------------------------------------------------------------||
||o-----------------------------------------------------------o||
||----4-------4-------4-------4-------4-------4-------7-7-5-4--||
||------2-------2-------2-------2-------2-------2-----5-5-3-2--||
||o-3-----3-3-----3-3-----3-3-----3-0-----0-0-----0-0---------o||
||-------------------------------------------------------------||


|-----------------|-------------------------------------------------|
|-----------------|-------------------------------------------------|
|---4-------4-----|---4-------4-------------------------------------|
|-----2-------2---|-----2-------2---5-7-5-7-7-7-7-7-----------------|
|-3-----3-3-----3-|-3-----3-3-----3-5-5-5-5-5-5-5-5-0-0-0-0-0-0-0-0-|
|-----------------|-----------------5-5-5-5-5-5-5-5-0-0-0-0-0-0-0-0-|


|-----------------|----------------------------------------|
|-----------------|----------------------------------------|
|-----------------|-----------------10-9-10-9-2-7-7-7-7S9--|
|-3-5-3-5-5-5-5-5-|-3-5-3-5-5-5-5-5------------------------|
|-3-3-3-3-3-3-3-3-|-3-3-3-3-3-3-3-3--8-7--8-7-0-5-5-5-5S7--|
|-3-3-3-3-3-3-3-3-|-3-3-3-3-3-3-3-3--0-0--0-0-0------------|


|-----------------|-----------------------|
|-----------------|-----------------------|
|-----------------|-----------------7-----|
|-3-5-3-5-5-5-5-5-|-3-5-3-5-5-5-5-5---0-0-|
|-3-3-3-3-3-3-3-3-|-3-3-3-3-3-3-3-3-5-0-0-|
|-3-3-3-3-3-3-3-3-|-3-3-3-3-3-3-3-3---0-0-|


||--------------------|-----------------|-----------------|------------------|
||o---8--------8------|---8-------8-----|---7-------7-----|---7-------7------|
||------9--------9----|-----9-------9---|-----8-------8---|-----6-------6----|
||--------10-------10-|-------9-------9-|-------9-------9-|-------7-------7--|
||o-7--------7--------|-7-------7-------|-6-------6-------|-5-------4--------|
||--------------------|-----------------|-----------------|------------------|


||------------------|-----------------|-----------------|------------||
||o-----------------|-----------------|-----------------|-----------o||
||----4-------4-----|---4-------4-----|---4-------4-----|---7-7-5-4--||
||------2-------2---|-----2-------2---|-----2-------2---|---5-5-3-2--||
||o-3-----3-3-----3-|-3-----3-3-----3-|-0-----0-0-----0-|-0---------o||
||------------------|-----------------|-----------------|------------||


|-----------------|-----------------|-----------------|-----------------|
|-----------------|-----------------|-----------------|-----------------|
|---4-------4-----|---4-------4-----|-----------------|-----------------|
|-----2-------2---|-----2-------2---|-5-7-5-7-7-7-7-7-|-----------------|
|-3-----3-3-----3-|-3-----3-3-----3-|-5-5-5-5-5-5-5-5-|-0-0-0-0-0-0-0-0-|
|-----------------|-----------------|-5-5-5-5-5-5-5-5-|-0-0-0-0-0-0-0-0-|


|-----------------|-----------------|-------------------|-----|
|-----------------|-----------------|-------------------|-----|
|-----------------|-----------------|-10-9-10-9-2-7-7-7-|-7S9-|
|-3-5-3-5-5-5-5-5-|-3-5-3-5-5-5-5-5-|-------------------|-----|
|-3-3-3-3-3-3-3-3-|-3-3-3-3-3-3-3-3-|--8-7--8-7-0-5-5-5-|-5S7-|
|-3-3-3-3-3-3-3-3-|-3-3-3-3-3-3-3-3-|--0-0--0-0-0-------|-----|


|-----------------|-----------------|---------------|
|-----------------|-----------------|---------------|
|-----------------|-----------------|-7-----2-3-2S5-|
|-3-5-3-5-5-5-5-5-|-3-5-3-5-5-5-5-5-|---0-0---------|
|-3-3-3-3-3-3-3-3-|-3-3-3-3-3-3-3-3-|-5-0-0-0-1-0S3-|
|-3-3-3-3-3-3-3-3-|-3-3-3-3-3-3-3-3-|---0-0---------|


|-----------------|-----------------|-------------------|-----|
|-----------------|-----------------|-------------------|-----|
|-----------------|-----------------|-10-9-10-9-2-7-7-7-|-7S9-|
|-3-5-3-5-5-5-5-5-|-3-5-3-5-5-5-5-5-|-------------------|-----|
|-3-3-3-3-3-3-3-3-|-3-3-3-3-3-3-3-3-|--8-7--8-7-0-5-5-5-|-5S7-|
|-3-3-3-3-3-3-3-3-|-3-3-3-3-3-3-3-3-|--0-0--0-0-0-------|-----|


|-----------------|-----------------|-------|
|-----------------|-----------------|-------|
|-----------------|-----------------|-7-----|
|-3-5-3-5-5-5-5-5-|-3-5-3-5-5-5-5-5-|---0-0-|
|-3-3-3-3-3-3-3-3-|-3-3-3-3-3-3-3-3-|-5-0-0-|
|-3-3-3-3-3-3-3-3-|-3-3-3-3-3-3-3-3-|---0-0-|


                                                 3x
||-----------------------------------------------||
||o-------1-----3-1-----0h1---1-----0h1---1-----o||
||------2---2---0---0---2-------2---2-------2----||
||----2-------2-2-----3-3---3-----3-3---3-----3--||
||o-0-----------3-------3-----------3-----------o||
||-----------------------------------------------||


|-----------------|---------------------------|
|-------1-----3-1-|-----0h1---1-----0h1-1-----|
|-----2---2---0---|-0---2-------2---0-----0---|
|---2-------2-2---|---3-3---3-----3-2-------2-|
|-0-----------3---|-----3-----------2---------|
|-----------------|---------------------------|


||--------------------------------------------------------|
||o-------------------------------------------------------|
||--------------------------------------------------------|
||----------------------------------9-10-9-10-10-10-10-10-|
||o-3-3-3-3-3-3-3-3-3-3-3-3-3-3-3-3-7--7-7--7--7--7--7--7-|
||--3-3-3-3-3-3-3-3-3-3-3-3-3-3-3-3-7--7-7--7--7--7--7--7-|


|----------------------|
|----------------------|
|----------------------|
|-9-10-9-10-10-10-10-10|
|-7--7-7--7--7--7--7--7|
|-7--7-7--7--7--7--7--7|


|-----------------|------------------------------------------------------||
|-----------------|-----------------------------------------------------o||
|-----------------|------------------------------------------------------||
|-----------------|------------------------------------------------------||
|-3-3-3-3-3-3-3-3-|-3-3-3-3-3-3-3-3-2-2-2-2-2-2-2-2-3-3-3-3-3-3-3-3-3-3-o||
|-3-3-3-3-3-3-3-3-|-3-3-3-3-3-3-3-3-2-2-2-2-2-2-2-2-3-3-3-3-3-3-3-3-3-3--||





Comments


Popular Novembers Doom tabs & chords
Autumn Reflection Intro Tabs
Leaving This Tabs
Leaving This Intro Tabs
Lost In A Day Tabs
Suffer The Red Dream Intro Tabs
Torn Tabs
Torn Intro Tabs
Twilight Innocence Tabs
Twilight Innocence Intro Tabs
With Rue Fire Intro Tabs


Song lyrics



↑ Back to top | Tablatures and chords are parodies/interpretations of the original songs. You may use it for private study, scholarship, research or language learning purposes only
© 2014 AZChords.com Contact us | Privacy policy | DMCA | Add/correct tabs | Request tabs | Top 50 tabs