» » »

Novastar, Making Waves Tabs (ver.1)

Artists:  A B C D E F G H I J K L M N O P Q R S T U V W X Y Z # 

Making Waves Tabs (ver.1)

Novastar Tabs
 Rating:
4/5 (4 votes)
Making Waves lessons Tabs too difficult? Try these video lessons and learn fast
1
                --------------------------------------------------------------------------
--------------------------------------------------------------------------

This isn't 100%, but for me at least it's close enough.

Standard tuning
Capo on second fret!

INTRO
  D6sus2          C#dim              Em    Emadd9       Em    Emadd9
e|5-----5---------3-----3-----3p0-----------------------------------------|
B|----5------5------5-----5-------0------0-------0----------0-------0-----|
G|--4------4---0------0-----0------------------0-----0------------0-----0-|
D|-------------------------------------2---2/4-----4------2---2/4-----4---|
A|5-----5---------4-----4-----4-------------------------------------------|
E|-----------------------------------0------------------0-----------------|
  Em    Emadd9      Em    Emadd9       Em    Emadd9      Em    Emadd9
e|------------------------------------------------------------------------|
B|----0-------0---------0-------0----------0-------0---------0-------0----|
G|----------0-----0-----------0-----0------------0-----0-----------0-----0|
D|--2---2/4-----4-----2---2/4-----4------2---2/4-----0-----2---2/4-----0--|
A|------------------------------------------------------------------------|
E|0-----------------0------------------0-----------------0----------------|

VERSE1
  Cmaj7                               Asus2
e|------------------------------------------------------------------------|
B|----0-----0----------0-----0------------0-----0----------0-----0--------|
G|---------------------------------0--------------------------------------|
D|--2-----2-----2----2-----2---0h2------2-----2-----2----2-----2-------0--|
A|3-----3-----3----3-----3------------0-----0-----0----0-----0-----0h2----|
E|------------------------------------------------------------------------|
  Em    Emadd9      Em    Emadd9       Em    Emadd9      Em    Emadd9
e|------------------------------------------------------------------------|
B|----0-------0---------0-------0----------0-------0---------0-------0----|
G|----------0-----0-----------0-----0------------0-----0-----------0-----0|
D|--2---2/4-----4-----2---2/4-----4------2---2/4-----0-----2---2/4-----4--|
A|------------------------------------------------------------------------|
E|0-----------------0------------------0-----------------0----------------|
  Cmaj7                               Asus2
e|------------------------------------------------------------------------|
B|----0-----0----------0-----0------------0-----0----------0-----0--------|
G|------------------------------------------------------------------------|
D|--2-----2-----2----2-----2-----2------2-----2-----2----2-----2-----2----|
A|3-----3-----3----3-----3-----3------0-----0-----0----0-----0-----0------|
E|------------------------------------------------------------------------|
  Em    Emadd9      Em    Emadd9       Em    Emadd9      Em    Emadd9
e|------------------------------------------------------------------------|
B|----0-------0---------0-------0----------0-------0---------0-------0----|
G|----------0-----0-----------0-----0------------0-----0-----------0-----0|
D|--2---2/4-----4-----2---2/4-----4------2---2/4-----0-----2---2/4-----0--|
A|------------------------------------------------------------------------|
E|0-----------------0------------------0-----------------0----------------|

PRE-CHORUS
   Cmaj7                             Dadd9
e|-----------------------------------------0----------------0----------|
B|-----0-----0----------0-----0----------3-------3--------3-----3---0--|
G|---------------------------------------------------------------------|
D|---2-----2-----2----2-----2-----2----4-------4---4----4-----4---4----|
A|-3-----3-----3----3-----3-----3----5-------5--------5----------------|
E|---------------------------------------------------------------------|
  Em    Emadd9      Em    Emadd9       Em    Emadd9      Em    Emadd9
e|------------------------------------------------------------------------|
B|----0-------0---------0-------0----------0-------0---------0-------0----|
G|----------0-----0-----------0-----0------------0-----0-----------0-----0|
D|--2---2/4-----4-----2---2/4-----4------2---2/4-----0-----2---2/4-----0--|
A|------------------------------------------------------------------------|
E|0-----------------0------------------0-----------------0----------------|

CHORUS
   Cmaj7            Bm               Em               Aadd9        Cmaj7
e|--------------------------------------------------------0---------------|
B|-----0-----0----------3-----3----------0-----0--------2-----2--------0--|
G|----------------------------------------------------------4---4---------|
D|---2-----2-----2----4-----4-----4----2-----2-----2-----------------2----|
A|-3-----3-----3----2-----2-----2---------------------0------------3------|
E|-----------------------------------0-----0-----0------------------------|
             Bm                Em    Emadd9      Em    Emadd9      Em
e|-----0------------------------------------------------------------------|
B|----------------3-----3----------0-------0---------0-------0---------0--|
G|---------------------------------------0-----0-----------0-----0--------|
D|---2-----2----4-----4-----4----2---2/4-----4-----2---2/4-----4-----2----|
A|-3-----3----2-----2-----2-----------------------------------------------|
E|-----------------------------0-----------------0-----------------0------|
   Emadd9      Em    Emadd9
e|--------------------------------|
B|-------0---------0-------0------|
G|-----0-----0-----------0-----0--|
D|-2/4-----0-----2---2/4-----0----|
A|--------------------------------|
E|-------------0------------------|

OUTRO
   Em7/D        Em6/C#       Em    Emadd9      Em    Emadd9
e|-3-----3------3-----3-------------------------------------------|
B|---5-----5------5-----5--------0-------0---------0-------0------|
G|-----4------------4------------------0-----0-----------0-----0--|  x3
D|-----------------------------2---2/4-----4-----2---2/4-----4----|
A|-5-----5---5--4-----4---4---------------------------------------|
E|---------------------------0-----------------0------------------|

INTRO
D6sus2  C#dim   Em  Emadd9  Em  Emadd9
Em  Emadd9   Em  Emadd9   Em  Emadd9   Em  Emadd9

VERSE1
Cmaj7
     Even though I've been thinking of it
Asus2                                 Em  Emadd9   Em  Emadd9...
     I've got a lot, got a lot to say
Cmaj7
     Don't know why you've been thinking of it
Asus2                                     Em  Emadd9   Em  Emadd9...
     When someone else got you in his sway

PRE-CHORUS
Cmaj7
     When you say it means nothing to you
Dadd9                                    Em  Emadd9   Em  Emadd9...
     It's coming out in words like these

CHORUS
       Cmaj7       Bm            Em            Aadd9
You can't   make waves, all the love you'll break
           Cmaj7          Bm             Em  Emadd9   Em  Emadd9...
No, you can't   seem to find peace of mind

VERSE2
Cmaj7
     You arrive in the silence of it
Asus2                              Em  Emadd9   Em  Emadd9...
     Scandalous the word would be
Cmaj7
     And you say that it's nothing to you but
Asus2
     It's coming out in words like free

CHORUS
       Cmaj7       Bm            Em            Aadd9
You can't   make waves, all the love you'll break
           Cmaj7          Bm             Em  Emadd9   Em  Emadd9
No, you can't   seem to find peace of mind

CHORUS (slightly different)
              Cmaj7         Dadd9     Em      Aadd9
And there's not    much here,    provoking years
           Cmaj7          Bm              Em  Emadd9   Em  Emadd9...
No, you can't   seem to find peace of mind

BRIDGE/SOLO
   C7                               Am7
e|--------------------------------------------------------------------|
B|-----1-----1---------1-----1----------1-----0---------1-------------|
G|---------3---------------3----------------------0-------------0h2---|
D|---2-----------2---2-----------2----2-----2---------2-----0h2-------|
A|-3-----3-----3---3-----3-----3----0-----0-----0---0-----0-----------|
E|--------------------------------------------------------------------|
  Em    Emadd9      Em    Emadd9       C7
e|----------------------------------------------------------------------|
B|----0-------0---------0-------0----------1-----1---------1-----1------|
G|----------0-----0-----------0-----0----------3---------------3--------|
D|--2---2/4-----4-----2---2/4-----4------2-----------2---2-----------2--|
A|-------------------------------------3-----3-----3---3-----3-----3----|
E|0-----------------0---------------------------------------------------|
   Am7                           Em    Emadd9      Em    Emadd9
e|---------------------------------------------------------------------|
B|-----1-----0------0-------0--------0-------0---------0-------0-------|
G|---------------0----2-0-2---0------------0-----0-----------0-----0---|
D|---2-----2-----------------------2---2/4-----4-----2---2/4-----4-----|
A|-0-----0-----0-------------------------------------------------------|
E|-------------------------------0-----------------0-------------------|
  Em    Emadd9      Em    Emadd9
e|--------------------------------------|
B|----0-------0---------0-------0-------|
G|----------0-----0-----------0-----0---|
D|--2---2/4-----4-----2---2/4-----4-----|
A|--------------------------------------|
E|0-----------------0-------------------|

OUTRO
Em7/D  Em6/C#     Em  Emadd9  Em  Emadd9
  I'll  make   waves
Em7/D  Em6/C#     Em  Emadd9  Em  Emadd9
  I'll  make waves.

Em7/D  Em6/C#     Em  Emadd9  Em 

=========================================================================
Comment, rate, appreciate!
            
Submit corrections

comments powered by Disqus
↑ Back to top | Novastar Tabs for Making Waves. Lyrics for acoustic guitar and electric guitar. 1 Tablatures and chords are parodies/interpretations of the original songs. You may use it for private study, scholarship, research or language learning purposes only