>
 >
Untitled

Untitled Guitar Tabs

Nothing Remains - Untitled chords, tabs, tablatures, lyrics

Guitar lessons | Add/correct | Request | Top 50 tabs Artists:  A B C D E F G H I J K L M N O P Q R S T U V W X Y Z 0-9

Untitled Guitar Tabs – Nothing Remains

CD, Sheet music, Poster

Do you like Untitled? Share with your friends now
Tabs
Tuning: BF#BEG#C#
Arranged: Nothing Remains



Riff 1
C#|-----------------|
G#|-----------------|
E |-----------------|
B |-----------------| Repeat x1 followed by fill 1
F#|-5~5h8\1~-0-1/4~-| Then Repeat again followed by fill 2 
B |-----------------| and repeat again

Fill 1

C#|-----------------------|
G#|-----------------------|
E |-----------------------|
B |-----8-7---8-----------|
F#|(4)/----10---10-8-7-8--|
B |-----------------------|

Fill 2

C#|-----------------------|
G#|-----------------------|
E |-----------------------|
B |-----------------------|
F#|(4)/10\8\7\4-5---------|
B |-----------------------|



C#|--------------|
G#|--------------|
E |--7-----6-----|
B |--7--8--6-----| Repeatx1 followed buy fill 3
F#|--5--8--4-----|
B |-----8--------|

Fill 3 (Pick Scrape)
F#|xxx~xxx~xxx~xxx~|
B |xxx~xxx~xxx~xxx~|


Riff 1 Tremolo Picked x2


Riff 2
C#|-------------------------------------------------------------|
G#|-------------------------------------------------------------|
E |-------------------------------------------------------------| 
B |-------------------------------------------------------------|
F#|-----5h6p5-5h3p5-2h3p2----5h6p5-3h5p3-3*---5h6p5-5h3p5-2h3p2|
B |-000-------------------000--------------000------------------|



Fill at End Of Riff 2
C#|---------------------|
G#|---------------------|
E |---------------------|
B |----------2-3-2-0----|
F#|4-1-0-3-0---------4*-|
B |---------------------|


Fill at end of riff 2 before Chourus
C#|-------------------------|
G#|-------------------------|
E |---------------7---------|
B |--------10-8-7---10-8-7*-|
F#|-10-8-7------------------|
B |-------------------------|


C#|------------------------------------------------|
G#|------------------------------------------------|
E |------------------------------------------------| x2
B |-0000000----0000-0000000-------------2-3-2-0----|
F#|-0000000----0000-0000000---4-1-0-3-0---------4*-|
B |-0000000----0000-0000000------------------------|

Chorus
C#|----------------------------------------------------------------------|
G#|----------------------------------------------------------------------|
E |----------------------------------------------------------------------|
B |------------5---------------------------------------------------------| 
F#|0-000-5-7-8---8-7--8-888-10-8-7-10-8-7-------8-7-5-8-7-5-7-777-888-777|
B |0-000--------------8-888---------------5-555-------------7-777--------|



C#|-------------------------------------------------------------|
G#|-------------------------------------------------------------|
E |-------------------------------------------------------------|
B |-------------------------------------------------------------| x2
F#|0-000-777888---8-888-1010108888-5-555-777888-7-777-101010888-|
B |0-000----------8-888------------5-555--------7-777-----------|



C#|-------------------------------------|
G#|-------------------------------------|
E |-------------------------------------|
B |-------------------------------------| x2 Tremolo Picked very Fast
F#|----------------------------55336655-|
B |-00003366-00006655-00003366----------|


C#|--------------------------------|
G#|--------------------------------|
E |--------------------------------|
B |--------------------------------| 
F#|0-00---0-00---0-00----5-------5-|
B |0-00---0-00---0-00--8---8-7-5---|
   Gtr1  Gtr2  Gtr1 - Both


C#|------------------------------------------------------|
G#|------------------------------------------------------|
E |------------------------------------------------------|
B |----------------------7---8---------------------------|
F#|---------8-7-5-------------------8-7-5-----5-------5--|
B |---0-000-------0-000---0---000----------8---8-7-5----|


C#|---------------------------------------------------------|
G#|---------------------------------------------------------|
E |---------------------------------------------------------|
B |----------------------7---8------------------------------|
F#|----------8-7-5---------------------5----8--------8---7--|
B |---0-000--------0-000--0----8-8-8----8-----7-7-7---7----|


Solo - Rhythm
C#|-------------------------------------------------|
G#|-------------------------------------------------|
E |-------------------------------------------------|
B |-0-000000000-8-888888888-5-555555555-7-777777777-|
F#|-0-000000000-8-888888888-5-555555555-7-777777777-|
B |-0-000000000-8-888888888-5-555555555-7-777777777-|





Comments


Popular Nothing Remains tabs & chords
Death St Tabs
Jane Doe Tabs
Slay The Monster Tabs
Take The Stairs Tabs


Song lyrics



↑ Back to top | Tablatures and chords are parodies/interpretations of the original songs. You may use it for private study, scholarship, research or language learning purposes only
© 2014 AZChords.com Contact us | Privacy policy | DMCA | Add/correct tabs | Request tabs | Top 50 tabs