>
 >
Take The Stairs

Take The Stairs Guitar Tabs

Nothing Remains - Take The Stairs chords, tabs, tablatures, lyrics

Guitar lessons | Add/correct | Request | Top 50 tabs Artists:  A B C D E F G H I J K L M N O P Q R S T U V W X Y Z 0-9

Take The Stairs Guitar Tabs – Nothing Remains

CD, Sheet music, Poster

Do you like Take The Stairs? Share with your friends now
Tabs
Band: Nothing remains
Tuning:BF#BEG#C#
Arranged By: Nothing Remains




Riff 1 pt 1
C#|------------------------------------|
G#|------------------------------------|
E |------------------------------------|
B |------------------------2h3p0-------|
F#|-----1---4---5---1---4--------2h3p0-|
B |-0-0---0---0---0---0----------------|



Riff 1 pt 2
C#|--------------------------------|
G#|--------------------------------|
E |--------------------------------|
B |--------------------------------|
F#|-----1---4---5----8-5-5-4-6-3-2-|
B |-0-0---0---0---0----------------|
                             P.H *


Gtr 2 under Riff 1
C#|------------|
G#|------------|
E |------------|
B |-0--000--00-|
F#|-0--000--00-|
B |-0--000-00-|
P.M *  ***  **



Riff 2 Pt1
C#|--------------------------------|
G#|--------------------------------|
E |--------------------------------|
B |--------------------------------|
F#|--------6-5-6-8---------3-2-3-5-|
B |0-0-0-0---------0-0-0-0---------|
P.M* * * *         * * * *



Riff 2 Pt 2
C#|----------------------------------|
G#|----------------------------------|
E |----------------------------------|
B |----------------------------------|
F#|---------2-----5-----3----2h3p0---|
B |-3-3-3-3---3-3---3-3----0-------3-|
P.M * * * *   * *   * *    *   P.H *



Riff 3
C#|-------------------------------------|
G#|---------6--------6---5---------6----|
E |---------x--------x---x---------x----|
B |---------7--------7---6---------7----|x1 Then Fill 1 Bellow
F#|---------5--------5---4---------5----|X1 Then Fill 2 Bellow
B |-000-000---000-000-000--000-000---000|
P.M *** ***   *** *** ***  *** ***   ***



Fill 1 
C#|-------------------------|  |---------------------|
G#|-------------------------|  |---------------------|
E |-------------------------|  |---------2h3p2-------|
B |---6-4-3---------5h6p5h6-|  |-----2-3-------2h3p2-|
F#|-3-------5h6p5h6---------|  |-2-3-----------------|
B |-------------------------|  |---------------------|




Break Down
C#|------------------------------------------------|
G#|---------------------66----------------66----55-|
E |---------------------xx----------------xx----xx-|
B |-0000000-0000000-000-77----------------77----66-|
F#|-0000000-0000000-000-55----------------55----44-|
B |-0000000-0000000-000----0000000-000000----000---|
P.M ******* ******* ***    ******* ******    ***



C#|----------------------------------------------------------|
G#|-------5\66-----------------------------------------------|
E |-------x\xx-----------------------------------------------|
B |-0-000-6\77---------5h6p5------6-666-5h6p5-4-4h5p4-1-1-11-|
F#|-0-000-4\55---5h6p5------5h6p5-6-666-5h6p5-4-4h5p4-0-0-00-|
B |-0-000------0------------------6-666-5h6p5-4-4h5p4-1-1-11-|
P.M   ***



Solo
C#|-------18-17-15------------------------------------------------|
G#|-\15~-----------18-15------------------------------------------|
E |----------------------17-15---15---------------15^-18-16-15----|
B |----------------------------18--18-15-17-18-17-------------18~-|
F#|---------------------------------------------------------------|
B |---------------------------------------------------------------|



C#|-----------15-18-17-15-18-15-----17--18-20-20^-18-17-15---------|
G#|---------17--------------------15--15------------------18-17-15-|
E |-------17--------------------15---------------------------------|
B |-----17--------------------15-----------------------------------|
F#|---15--------------------17-------------------------------------|
B |----------------------------------------------------------------|
Sweep[#-#-#-#-#]           [#-#-#-#-#]



C#|------------------------11-12-15---------11-12-15-------|
G#|---------------11-12-15---------11-12-15----------11-15-|
E |-17~--11-12-15------------------------------------------|
B |--------------------------------------------------------|
F#|--------------------------------------------------------|
B |--------------------------------------------------------|



C#|-------------------15-1821p18p15-21p18p15-21p18p15-18^18~-|
G#|-------------14-17-----------------------------------------|
E |-------13-16-----------------------------------------------|
B |-12-15-----------------------------------------------------|
F#|-----------------------------------------------------------|
B |-----------------------------------------------------------|



Rhythm Under Solo
C#|--------00------------------------|
G#|-66666-6-6-1010--109--------------|
E |-77777------99-----9---9-9999-9999-|
B |-xxxxx------77-----------6666-5555-|
F#|-55555------77-----------6666-5555-|
B |-00000------77-----------6666-5555-|



C#|----------|
G#|-6------3-|
E |-7------2-|
B |-x------0-|
F#|-5------0-|
B |-0---15\0-|





Comments


Popular Nothing Remains tabs & chords
Death St Tabs
Jane Doe Tabs
Slay The Monster Tabs
Untitled Tabs


Song lyrics



↑ Back to top | Tablatures and chords are parodies/interpretations of the original songs. You may use it for private study, scholarship, research or language learning purposes only
© 2014 AZChords.com Contact us | Privacy policy | DMCA | Add/correct tabs | Request tabs | Top 50 tabs