>
 >
Slay The Monster

Slay The Monster Guitar Tabs

Nothing Remains - Slay The Monster chords, tabs, tablatures, lyrics

Guitar lessons | Add/correct | Request | Top 50 tabs Artists:  A B C D E F G H I J K L M N O P Q R S T U V W X Y Z 0-9

Slay The Monster Guitar Tabs – Nothing Remains

CD, Sheet music, Poster

Do you like Slay The Monster? Share with your friends now
Tabs
Band: Nothing Remains
Tuning: BF#BEG#C#


C#|--------------------------------------|
G#|--------------------------------------|
E |--------------------------------------|
B |--------------------------------------|
F#|-----55-44-7777777----------3333-2222-|
B |-6666-------------2222-44-11----------|



C#|-----------------------------------------------------|
G#|-----------------------------------------------------|
E |-----------------------------------------------------|
B |---------4-----3---------------------4-----3---------|
F#|--5-4-4-5-5-3-4-4-------3~2~--5-4-4-5-5-3-4-4--------|
B |-6----------------2-4-1-----6-----------------2-4-1--|

C#|-----------------------|
G#|-----------------------|
E |-----------------------|
B |---------------0h5h8---|
F#|---0h4h7-0h5h8-------5-|
B |-----------------------|



C#|------------------------------------------|
G#|------------------------------------------|
E |------------------------------------------|
B |----------------------------------0h5h8---|
F#|-----8h11p8-7h10p7-----0h4h7-0h5h8------5-|
B |-000---------------000--------------------|



C#|------------------------------------------------|
G#|------------------------------------------------|
E |------------------------------------------------|
B |------------------------------------------------|
F#|-----8h11p8-7h10p7-----101010-999-131313-121212-|
B |-000---------------000--------------------------|



C#|---------------------------------------------------------------|
G#|---------------------------------------------------------------|
E |---------------------------------------------------------------|
B |-------777-----------777---------------------------------------|
F#|555-888---888-555-888----888----101010-888-777-----888-777-555-|
B |----------------------------888----------------555-------------|

Sweep                 [-------]
C#|------------------------12h15p12--------------------------|
G#|-----------------------14---------------------------------|
E |-3-3333-6-6666-666----14----------------------------------|
B |-x-xxxx-x-xxxx-xxx---14-----------------------------------|
F#|-1-1111-4-4444-444--12------------------------------------|
B |----------------------------------3-2-0-4-3-0-3-2-0-5-4-0-|
P.M                                  # # # # # # # # # # # #

C#|----------------------------------------------|
G#|----------------------------------------------|
E |-9-9999-7-7777-6-666--------------------------|
B |-x-xxxx-x-xxxx-x-xxx--------------------------|
F#|-7-7777-5-5555-4-444--------------------------|
B |----------------------3-2-0-4-3-0-3-2-0-5-4-0-|
P.M                      # # # # # # # # # # # #


C#|----------------------|
G#|----------------------|
E |----------------------|
B |-0000000-000000-0-0-0-|
F#|-0000000-000000-0-0-0-|
B |-0000000-000000-0-0-0-|



C#|----------------------------------------------------|
G#|----------------------------------------------------|
E |----------------------------------------------------|
B |----------------------------------------------------|
F#|-888888-11-8-555555-8-5-111111-0-11-44444-333333-3^-|
B |----------------------------------------------------|



C#|----------------------|
G#|----------------------|
E |----------------------|
B |-0000000-000000-0-0-0-|
F#|-0000000-000000-0-0-0-|
B |-0000000-000000-0-0-0-|





Comments


Popular Nothing Remains tabs & chords
Death St Tabs
Jane Doe Tabs
Take The Stairs Tabs
Untitled Tabs


Song lyrics



↑ Back to top | Tablatures and chords are parodies/interpretations of the original songs. You may use it for private study, scholarship, research or language learning purposes only
© 2014 AZChords.com Contact us | Privacy policy | DMCA | Add/correct tabs | Request tabs | Top 50 tabs