>
 >
Jane Doe

Jane Doe Guitar Tabs

Nothing Remains - Jane Doe chords, tabs, tablatures, lyrics

Guitar lessons | Add/correct | Request | Top 50 tabs Artists:  A B C D E F G H I J K L M N O P Q R S T U V W X Y Z 0-9

Jane Doe Guitar Tabs – Nothing Remains

CD, Sheet music, Poster

Do you like Jane Doe? Share with your friends now
Tabs
Band: Nothing Remains
Tuning: BF#BEG#C#
Arranged By: Nothing Remains


Gtrs 1 & 2
C#|-----------|
G#|-----------|
E |-----------|
B |-0--1111-0-|
F#|-0--1111-0-|
B |-0--1111-0-|

P.M    ****

Gtr 1 
C#|-t12p8p5t12p8p5t12p8p5t12p8p5t12p8p5t12p8p5-|
G#|--------------------------------------------|
E |--------------------------------------------|
B |--------------------------------------------|
F#|--------------------------------------------|
B |--------------------------------------------|


C#|-t13p8p5t13p8p5t13p8p5t12p8p5t12p8p5t12p8p5|
G#|-------------------------------------------|
E |-------------------------------------------|
B |-------------------------------------------|
F#|-------------------------------------------|
B |-------------------------------------------|



C#|-t12p7p4t12p7p4t12p7p4t12p7p4t12p7p4t12p7p4-|
G#|--------------------------------------------|
E |--------------------------------------------|
B |--------------------------------------------|
F#|--------------------------------------------|
B |--------------------------------------------|


C#|-t10p7p4t12p7p4t13p7p4t12p7p4t12p7p4t12p7p4-|
G#|--------------------------------------------|
E |--------------------------------------------|
B |--------------------------------------------|
F#|--------------------------------------------|
B |--------------------------------------------|


C#|-t12p8p5 t12p8p5 t12p8p5 t12p8p5 t12p8p5 t12p8p5-|
G#|-------------------------------------------------|
E |-------------------------------------------------|
B |-------------------------------------------------|
F#|-------------------------------------------------|
B |-------------------------------------------------|


C#|-t13p8p5t13p8p5t13p8p5t12p8p5t12p8p5t12p8p5------|
G#|-------------------------------------------------|
E |-------------------------------------------------|
B |-------------------------------------------------|
F#|-------------------------------------------------|
B |-------------------------------------------------|


C#|-t12p7p4t12p7p4t12p7p4t12p7p4t12p7p4t12p7p4------|
G#|-------------------------------------------------|
E |-------------------------------------------------|
B |-------------------------------------------------|
F#|-------------------------------------------------|
B |-------------------------------------------------|



C#|t13p7p4t12p7p4t13p7p4t15~-|
G#|--------------------------|
E |--------------------------|
B |--------------------------|
F#|--------------------------|
B |--------------------------|

Fill 1
C#|------------|
G#|------------|
E |------------|
B |-0-0-0-0----|
F#|-0-0-0-0----|
B |-0-0-0-0-3~-|
P.M * * * * ^

C#|---------------------------------------------|
G#|---------------------------------------------|
E |---------------------------------------------|
B |-0-------------------------------------------|
F#|-0---------------5h8p5-4h5p4-8h9p8h9p8h9p8h9-|
B |-0-000000000000------------------------------|
                   [ Tremolo Picking While Pulling Off]

C#|------------------------------------------------|
G#|------------------------------------------------|
E |------------------------------------------------|
B |-0----------------------------------------------|
F#|-0--------------4p1-4p1-4p1-4p1-4p1-4p1-4p1-4p1-|
B |-0-000000000000---------------------------------|
                  [  Tremolo Picking While Pulling Off]              

C#|---------------------------------|
G#|---------------------------------|
E |---------------------------------|
B |-3-2-1-03-2-0-1-3-2-1-0-3-2-0-1-|
F#|-3-2-1-03-2-0-1-3-2-1-0-3-2-0-1-|
B |-3-2-1-03-2-0-1-3-2-1-0-3-2-0-1-|


C#|--------------------------------------|
G#|--------------------------------------|
E |--------------------------------------|
B |--------------------------------------|
F#|---8---7---5---7---8----5h8p5-4h5p4--|
B |-0---0---0---0---0---0----------------|

C#|----------------------------------------|
G#|----------------------------------------|
E |----------------------------------------|
B |----------------------------------------|
F#|---8---7---5---7---8----4p1-4p1-4p1-4p1-|
B |-0---0---0---0---0---0------------------|       


C#|-----------------------------------|
G#|-----------------------------------|
E |-----------------------------------|
B |-----------------------------------|
F#|---8---7---5---7---8---5h8p5-4h5p4-|
B |-0---0---0---0---0---0-------------|



C#|---------------------------------|
G#|---------------------------------|
E |---------------------------------|
B |---------222-------------555-----|
F#|111-444-----333-444-777-----666-|
B |---------------------------------|



C#|-----------------------------------------------|
G#|-----------------------------------------------|
E |-----------------------------------------------|
B |-10-7-9-6-8-5-7-4-6-3-2-5-1-4-0----------------|
F#|-----------------------------------------------|
B |-----------------------------------------------|



Gtrs 1&2 all Tremolo Picked
C#|---------------------------------------------------|
G#|---------------------------------------------------|
E |---------------------------------------------------|
B |---------------------------------------------------|
F#|-1111-4444-1111-1-4-1-4-1-5555-8888-5555-5-8-5-8-5-|
B |---------------------------------------------------|




Gtr1 Solo Rhythm
C#|----------------|    |--------------------|
G#|----------------|    |--------------------|
E |----------------|    |--------------------|
B |-00000000-3/6-6-|x2  |------------7/10-10-|x2
F#|-00000000-1/4-4-|    |------------5/8-8--|
B |-00000000-------|    |---00000000---------|



Fill
C#|-----------------|
G#|-----------------|
E |-----------------|
B |-7-5---5---------|
F#|-----8---8-7-5-7-|
B |-----------------|



Interlude Pt1
C#|----------------------------------------|
G#|----------------------------------------|
E |---------3-2-------3-2------------------|
B |-----2-5-----5-3-5------3-5-3-2h3p2h3p2-|
F#|-1-4------------------------------------|
B |----------------------------------------|



Interlude Pt2
C#|-------------------------------------|
G#|-------------------------------------|
E |---------3-2-----3-2-----------------|
B |---2-3-5-----5-3-----3-5-3-2h3p2h3p2-|
F#|-5-----------------------------------|
B |-------------------------------------|
 


Fill
C#|---------|
G#|---------|
E |---------|
B |-5-3-2-0-|
F#|---------|
B |---------|



C#|-------------------------------------------------------------------|
G#|-------------------------------------------------------------------|
E |-------------------------------------------------------------------|
B |-3-2-1-03-2-0-1-3-2-1-0-3-2-0---3-2-1-03-2-0-1-3-2-1-0-3-2-0-1-0-|
F#|-3-2-1-03-2-0-1-3-2-1-0-3-2-0---3-2-1-03-2-0-1-3-2-1-0-3-2-0-1-0-|
B |-3-2-1-03-2-0-1-3-2-1-0-3-2-0-3-3-2-1-03-2-0-1-3-2-1-0-3-2-0-1-0-|
                            P.H     ^





Comments


Popular Nothing Remains tabs & chords
Death St Tabs
Slay The Monster Tabs
Take The Stairs Tabs
Untitled Tabs


Song lyrics



↑ Back to top | Tablatures and chords are parodies/interpretations of the original songs. You may use it for private study, scholarship, research or language learning purposes only
© 2014 AZChords.com Contact us | Privacy policy | DMCA | Add/correct tabs | Request tabs | Top 50 tabs