>
 >
Death St

Death St Guitar Tabs

Nothing Remains - Death St chords, tabs, tablatures, lyrics

Guitar lessons | Add/correct | Request | Top 50 tabs Artists:  A B C D E F G H I J K L M N O P Q R S T U V W X Y Z 0-9

Death St Guitar Tabs – Nothing Remains

CD, Sheet music, Poster

Do you like Death St? Share with your friends now
Tabs
Band: Nothing Remains
Tuning: BF#BEG#C#


B |------------------------------------------|
G#|------------------------------------------|
E |------------------------------------------|
B |------------------------------------------|
F#|----------88p00h55p00h44p00-88p00h77p005~-|
B |-/15-0000---------------------------------|



B |-----------------------------------------------|
G#|-----------------------------------------------|
E |-----------------------------------------------|
B |-----------------------------------------------|
F#|-----88p00h55p00h44p00-88h1111p88-77h1010p7-7~-|
B |-0000------------------------------------------|




B |------------------------------------------|
G#|------------------------------------------|
E |------------------------------------------|
B |------------------------------------------|
F#|----------88p00h55p00h44p00-88p00h77p005~-|
B |-0000-------------------------------------|


B |----------------------------------|
G#|----------------------------------|
E |----------------------------------|
B |----------------------------------|
F |---------------------6h9p6-7h10p7-|
B |-0-0-0-000-000-0-0-0--------------|




B |-----------------------------------------|
G#|-----------------------------------------|
E |-----------------------------------------|
B |-----------------------------------------|
F#|-0-0-0-000-000-0-0-0-000-000-0-0-000-000-|
B |-0-0-0-000-000-0-0-0-000-000-0-0-000-000-|


B |----------------------------------------------------------|
G#|----------------------------------------------------------|
E |----------------------------------------------------------|
B |-0-00----0-00----------0--------66-99---------88-1111-----|
F#|-0-00----0-0010-8-7-5-0---55-88------77-1010-------------|
B |-0-00----0-00----------0----------------------------------|



B |-----------------------------------------------------------|
G#|-----------------------------------------------------------|
E |-----------------------------------------------------------|
B |-----------------------------------------------------------|
F#|------8-----4----8-----7----5------8----4-----10----8---7~-|
B |-0-00--0-00--0-0--0-0---0-0---0-00--0-00--0-00---00---00---|



B |----------------------------------------------------------|
G#|----------------------------------------------------------|
E |----------------------------------------------------------|
B |------------------------------------66-99---------88-1111-|
F#|------8-----4----8-----7----5--55-88------77-1010---------|
B |-0-00--0-00--0-0--0-0---0-0-------------------------------|



B |-------------------------------------------------|
G#|-------------------------------------------------|
E |-------------------------------------------------|
B |-------------------------------------------------|
F#|-8-55-8-55-7-44-7-44-8-1111-8-1111-7-1010-7-1010-|
B |-------------------------------------------------|




B |---------------------------------------------------------|
G#|---------------------------------------------------------|
E |---------------------------------------------------------|
B |---------------------------------------------------0-2-0-|
F#|-5555-4444-8888-7777-10101010-8888-7777-11111111---1-3-0-|
B |-------------------------------------------------------0-|




B |-------------------------------------------------|
G#|-------------------------------------------------|
E |-------------------------------------------7/8\7-|
B |-0000-1-0000-1---0-1-0-1---0000-1-0000-1-0-x-x-x-|
F#|-0000-1-0000-1---0-1-0-1---0000-1-0000-1-0-5/6\5-|
B |-0000-1-0000-1---0-1-0-1---0000-1-0000-1-0-------|



B |------------------------------------------------------|
G#|------------------------------------------------------|
E |------------------------------------------------------|
B |-0000-1-0000-1---0-1-0-1---0000-1-0000-1-00-----------|
F#|-0000-1-0000-1---0-1-0-1---0000-1-0000-1-00--8-7-5-5^-|
B |-0000-1-0000-1---0-1-0-1---0000-1-0000-1-00---0-0-0---|



B |-101010101010---77777777777777-|
G#|-101010101010---77777777777777-|
E |-101010101010---77777777777777-|
B |-888888888888---55555555555555-|
F#|-888888888888---55555555555555-|
B |-888888888888---55555555555555-|



B |-------------------------------------|
G#|-------------------------------------|
E |-------------------------------------|
B |-1-0---0-1-3-1-0-1-0---0-1-3-1-0-1-0-|
F#|-1-0---0-1-3-1-0-1-0---0-1-3-1-0-1-0-|
B |-1-0---0-1-3-1-0-1-0---0-1-3-1-0-1-0-|





Comments


Popular Nothing Remains tabs & chords
Jane Doe Tabs
Slay The Monster Tabs
Take The Stairs Tabs
Untitled Tabs


Song lyrics



↑ Back to top | Tablatures and chords are parodies/interpretations of the original songs. You may use it for private study, scholarship, research or language learning purposes only
© 2014 AZChords.com Contact us | Privacy policy | DMCA | Add/correct tabs | Request tabs | Top 50 tabs