>
 >
Walking On Bodies

Walking On Bodies Guitar Tabs

Nothingface - Walking On Bodies chords, tabs, tablatures, lyrics

Guitar lessons | Add/correct | Request | Top 50 tabs Artists:  A B C D E F G H I J K L M N O P Q R S T U V W X Y Z 0-9

Walking On Bodies Guitar Tabs – Nothingface

CD, Sheet music, Poster

Do you like Walking On Bodies? Share with your friends now
Tabs
    Fast Rock Q=208
   4/4
    Gtr I
    E E E E E E E E   E E E E E E E E  4x
||------------------|------------------||
||o-----------------|-----------------o||
||------------------|------------------||
||------------------|------------------||
||o-3-2-0-3-6-0-3-5-|-0-3-0-3-0-3-5-3-o||
||--3-2-0-3-6-0-3-5-|-0-3-0-3-0-3-5-3--||


    $
    PM----|             PM|
    E E E E a E E E E   E E a E E E E E E
||--------------------|-------------------|
||o-------------------|-------------------|
||----------5s7-7-7-7-|-----7s8-8-8-8-8-8-|
||--------------------|-------------------|
||o-0-0-0-0-3s5-5-5-5-|-0-0-5s6-6-6-6-6-6-|
||--0-0-0-0-----------|-0-0---------------|


  PM----|
  E E E E a E E E E   E E  E E E E  E  E
|-------------------|--------------------|
|-------------------|--------------------|
|---------5s7-7-7-7-|-----/7-7S8-8S10-10-|
|-------------------|--------------------|
|-0-0-0-0-3s5-5-5-5-|-0-0-/5-5S6-6S=8--8-|
|-0-0-0-0-----------|-0-0----------------|


  PM----|             PM|
  E E E E a E E E E   E E a E E E E E E
|-------------------|-------------------|
|-------------------|-------------------|
|---------5s7-7-7-7-|-----7s8-8-8-8-8-8-|
|-------------------|-------------------|
|-0-0-0-0-3s5-5-5-5-|-0-0-5s6-6-6-6-6-6-|
|-0-0-0-0-----------|-0-0---------------|


  PM----|
  E E E E a E E E E   E E E E E E E E   3x
|-------------------|-------------------||
|-------------------|------------------o||
|---------5s7-7-7-7-|-------------------||
|-------------------|-5s4-4-4s3-3-2-1---||
|-0-0-0-0-3s5-5-5-5-|-5s4-4-4s3-3-2-1--o||
|-0-0-0-0-----------|-5s4-4-4s3-3-2-1---||


  E  E   E   E  E  E   E   E    E  E   E   E  E  E   E   E
|-0-(0)-(0)-(0)-0-(0)-(0)-(0)-|-0-(0)-(0)-(0)-0-(0)-(0)-(0)-|
|-0-(0)-(0)-(0)-0-(0)-(0)-(0)-|-0-(0)-(0)-(0)-0-(0)-(0)-(0)-|
|-4--4---4---4--4--4---4---4--|-4--4---4---4--4--4---4---4--|
|-2--2---2---2--2--2---2---2--|-2--2---2---2--2--2---2---2--|
|-2--2---2---2--2--2---2---2--|-2--2---2---2--2--2---2---2--|
|-2--2---2---2--2--2---2---2--|-2--2---2---2--2--2---2---2--|


  E  E   E   E  E  E   E   E    E  S   S   E   E  E  E   E   E
|-0-(0)-(0)-(0)-0-(0)-(0)-(0)-|-0-(0)-(0)-(0)-(0)-0-(0)-(0)-(0)--|
|-0-(0)-(0)-(0)-0-(0)-(0)-(0)-|-0-(0)-(0)-(0)-(0)-0-(0)-(0)-(0)--|
|-4--4---4---4--4--4---4---4--|-4--7---7---7---7--7--7---7---7---|
|-3--3---3---3--3--3---3---3--|-3S=0---0---0---0--0--0---0---0---|
|-3--3---3---3--3--3---3---3--|-3S=0---0---0---0--0--0---0---0---|
|-3--3---3---3--3--3---3---3--|-3S=0---0---0---0--0--0---0---0---|


  E  E   E   E  E  E   E   E    E  E   E   E  E  E   E   E
|-0-(0)-(0)-(0)-0-(0)-(0)-(0)-|-0-(0)-(0)-(0)-0-(0)-(0)-(0)-|
|-0-(0)-(0)-(0)-0-(0)-(0)-(0)-|-0-(0)-(0)-(0)-0-(0)-(0)-(0)-|
|-4--4---4---4--4--4---4---4--|-4--4---4---4--4--4---4---4--|
|-2--2---2---2--2--2---2---2--|-2--2---2---2--2--2---2---2--|
|-2--2---2---2--2--2---2---2--|-2--2---2---2--2--2---2---2--|
|-2--2---2---2--2--2---2---2--|-2--2---2---2--2--2---2---2--|


  E  E   E   E  E  E   E   E    E E E E E E E E
|-0-(0)-(0)-(0)-0-(0)-(0)-(0)-|-----------------|
|-0-(0)-(0)-(0)-0-(0)-(0)-(0)-|-----8-8-8-8-8-8-|
|-4--4---4---4--4--4---4---4--|-4s7-7-7-7-7-7-7-|
|-3--3---3---3--3--3---3---3--|-3s5-5-5-5-5-5-5-|
|-3--3---3---3--3--3---3---3--|-3s5-5-5-5-5-5-5-|
|-3--3---3---3--3--3---3---3--|-3s5-5-5-5-5-5-5-|


    E E E E Q  E E   E E Q  E E E E   E E E E Q  E E   E E E E E E E E
||-----------------|----------------|----------------|------------------|
||o----------------|----------------|----------------|------------------|
||-----------------|----------------|----------------|------------------|
||--0-0-0-0----0-0-|-0-0----0-0-0-0-|-3-3-3-3----3-3-|-3s5-5-5-5s6-6-6--|
||o-0-0-0-0----0-0-|-0-0----0-0-0-0-|-3-3-3-3----3-3-|-3s5-5-5-5s6-6-6--|
||--0-0-0-0----0-0-|-0-0----0-0-0-0-|-3-3-3-3----3-3-|-3s5-5-5-5s6-6-6--|


                                                               D.S.
  E E E E Q  E E   E E Q  E E E E   E E E E Q  E E   E E E E E E E E
|----------------|----------------|----------------|------------------||
|----------------|----------------|----------------|-----------------o||
|----------------|----------------|----------------|------------------||
|-0-0-0-0----0-0-|-0-0----0-0-0-0-|-3-3-3-3----3-3-|-3s4-4-4-4s1-1-1--||
|-0-0-0-0----0-0-|-0-0----0-0-0-0-|-3-3-3-3----3-3-|-3s4-4-4-4s1-1-1-o||
|-0-0-0-0----0-0-|-0-0----0-0-0-0-|-3-3-3-3----3-3-|-3s4-4-4-4s1-1-1--||


    Gtr II
    E E E E E E E E   E E E E E E E E  4x
||------------------|------------------||
||o-----------------|-----------------o||
||------------------|------------------||
||------------------|------------------||
||o-----------------|-----------------o||
||--3-2-0-3-6-0-3-5-|-0-3-0-3-0-3-5-3--||


    Gtr I
    E E E E E E E E   E E E E E E E E  4x
||------------------|------------------||
||o-----------------|-----------------o||
||------------------|------------------||
||------------------|------------------||
||o-3-2-0-3-6-0-3-5-|-0-3-0-3-0-3-5-3-o||
||--3-2-0-3-6-0-3-5-|-0-3-0-3-0-3-5-3--||


    PM------------------------------|
    E E E E E E E E   E E E E E E E E  4x
||------------------|------------------||
||o-----------------|-----------------o||
||------------------|------------------||
||------------------|------------------||
||o-3-2-0-3-6-0-3-5-|-0-3-0-3-0-3-5-3-o||
||--3-2-0-3-6-0-3-5-|-0-3-0-3-0-3-5-3--||


    E E E E E E E E   E E E E E E E E  4x E E E E Q    W
||------------------|------------------||------------|------|
||o-----------------|-----------------o||------------|------|
||------------------|------------------||------------|------|
||------------------|------------------||------------|------|
||o-3-2-0-3-6-0-3-5-|-0-3-0-3-0-3-5-3-o||-3-2-0------|------|
||--3-2-0-3-6-0-3-5-|-0-3-0-3-0-3-5-3--||-3-2-0------|------|


    E E E E Q  E E   E E Q  E E E E   E E E E Q  E E   E E E E E E E E
||-----------------|----------------|----------------|------------------|
||o----------------|----------------|----------------|------------------|
||-----------------|----------------|----------------|------------------|
||--0-0-0-0----0-0-|-0-0----0-0-0-0-|-3-3-3-3----3-3-|-3s5-5-5-5s6-6-6--|
||o-0-0-0-0----0-0-|-0-0----0-0-0-0-|-3-3-3-3----3-3-|-3s5-5-5-5s6-6-6--|
||--0-0-0-0----0-0-|-0-0----0-0-0-0-|-3-3-3-3----3-3-|-3s5-5-5-5s6-6-6--|


  E E E E Q  E E   E E Q  E E E E   E E E E Q  E E   E E E E E E E E  4x
|----------------|----------------|----------------|------------------||
|----------------|----------------|----------------|-----------------o||
|----------------|----------------|----------------|------------------||
|-0-0-0-0----0-0-|-0-0----0-0-0-0-|-3-3-3-3----3-3-|-3s4-4-4-4s1-1-1--||
|-0-0-0-0----0-0-|-0-0----0-0-0-0-|-3-3-3-3----3-3-|-3s4-4-4-4s1-1-1-o||
|-0-0-0-0----0-0-|-0-0----0-0-0-0-|-3-3-3-3----3-3-|-3s4-4-4-4s1-1-1--||


  W          +W           +W           +W
|----------|------------|------------|--------|
|----------|------------|------------|--------|
|----------|------------|------------|--------|
|-0--------|-(0)--------|-(0)--------|-(0)----|
|-0--------|-(0)--------|-(0)--------|-(0)----|
|-0--------|-(0)--------|-(0)--------|-(0)----|



Duration Legend
---------------
W - whole; H - half; Q - quarter; E - 8th; S - 16th; T - 32nd; X - 64th; a - acciaccatura
+ - note tied to previous; . - note dotted; .. - note double dotted
Uncapitalized letters represent notes that are staccato (1/2 duration)
Irregular groupings are notated above the duration line
Duration letters will always appear directly above the note/fret number it represents the
duration for.  Duration letters with no fret number below them represent rests.  Multi-
bar rests are notated in the form Wxn, where n is the number of bars to rest for.  Low
melody durations appear below the staff

Tablature Legend
----------------
 h   - hammer-on
 p   - pull-off
 b   - bend
 pb  - pre-bend
 r   - bend release (if no number after the r, then release immediately)
 /\  - slide into or out of (from/to "nowhere")
 s   - legato slide
 S   - shift slide
 - natural harmonic
[n]  - artificial harmonic
n(n) - tapped harmonic
 ~   - vibrato
 tr  - trill
 T   - tap
 TP  - trem. picking
 PM  - palm muting
\n/  - tremolo bar dip; n = amount to dip
 \n  - tremolo bar down
 n/  - tremolo bar up
/n\  - tremolo bar inverted dip
 =   - hold bend; also acts as connecting device for hammers/pulls
 <> - volume swell (louder/softer)
 x   - on rhythm slash represents muted slash
 o   - on rhythm slash represents single note slash

Misc Legend
-----------
 |  - bar
||  - double bar
||o - repeat start
o|| - repeat end
*|  - double bar (ending)
 :  - bar (freetime)
 $  - Segno
 &  - Coda
Tempo markers -  = BPM(8/16=s8/s16), where s8 = swing 8ths, s16 = swing 16ths





Comments


Popular Nothingface tabs & chords
American Love 1 Bass Tabs
I Cant Wait For Violence Bass Tabs
The Sick Bass Tabs
All Cut Up 1 Tabs
Ether Tabs
Here Come The Butchers Tabs
Hitch Tabs
Lipsdick Tabs
Self Punishment Tabs
Useless Tabs


Song lyrics



↑ Back to top | Tablatures and chords are parodies/interpretations of the original songs. You may use it for private study, scholarship, research or language learning purposes only
© 2014 AZChords.com Contact us | Privacy policy | DMCA | Add/correct tabs | Request tabs | Top 50 tabs