» » »

Nothingface, Villains Tabs (ver.3)

Artists:  A B C D E F G H I J K L M N O P Q R S T U V W X Y Z # 

Villains Tabs (ver.3)

Nothingface Tabs
Rating:
0/5 (0 votes)
Villains lessons Tabs too difficult? Try these video lessons and learn fast
                |-----------------------------------------------------------------|
|-----------------------------------------------------------------|
|-----------------------------------------------------------------|
|-3-3-3-3-6-6-6-6-6-------9-8-6-----6-----6-7-6-4-6-------9-8-6---|
|-3-3-3-3-6-6-6-6-6-0-0-0-9-8-6-0-0-6-0-0-6-7-6-4-6-0-0-0-9-8-6-0-|
|-3-3-3-3-6-6-6-6-6-0-0-0-9-8-6-0-0-6-0-0-6-7-6-4-6-0-0-0-9-8-6-0-|
                    . . .       . .   . .           . . .       .

|-----------------------------------------------------------------|
|-----------------------------------------------------------------|
|-----------------------------------------------------------------|
|-----------------------------------------------------------------|
|-----------------------------------------------------------------|
|-3-3-3-3-6-6-6-6-6-0-0-0-9-8-6-0-0-6-0-0-6-7-6-4-6-0-0-0-9-8-6-0-|
                    . . .       . .   . .           . . .       .

|-----------------------------------------------------------------|
|-----------------------------------------------------------------|
|-----------------------------------------------------------------|
|-12--------------6---------------10--------------4---------------|
|-12--------------6---------------10--------------4---------------|
|-12--------------6---------------10--------------4---------------|
|                                                                 |
|---------0---------------0---------------0---------------0-------|
|-----10--8-----------10--8-----------10--8-----------10--8-------|
|-----10--------------10--------------10--------------10----------|
|-----------------------------------------------------------------|
|-----------------------------------------------------------------|
|-----------------------------------------------------------------|

|--------------------------------------------------------------------|
|--------------------------------------------------------------------|
|--------------------------------------------------------------------|
|-6-------10-----5---6---3-----10---5---6---3-----10---5---6---3-3-3-|
|-6-0-0-0-10-0-0-5-0-6-0-3-0-0-10-0-5-0-6-0-3-0-0-10-0-5-0-6-0-3-3-3-|
|-6-0-0-0-10-0-0-5-0-6-0-3-0-0-10-0-5-0-6-0-3-0-0-10-0-5-0-6-0-3-3-3-|
    . . .    . .   .   .   . .    .   .   .   . .    .   .   .

|--------------------------------------------------------------------|
|--------------------------------------------------------------------|
|--------------------------------------------------------------------|
|--------------------------------------------------------------------|
|--------------------------------------------------------------------|
|-6-0-0-0-10-0-0-5-0-6-0-3-0-0-10-0-5-0-6-0-3-0-0-10-0-5-0-6-0-3-3-3-|
    . . .    . .   .   .   . .    .   .   .   . .    .   .   .

|-----------------------------------------------------------------|
|-----------------------------------------------------------------|
|-----------------------------------------------------------------|
|-----------------------------------------------------------------|
|-----------------------------------------------------------------|
|-0-0-0---0-0-0---0-0-0---0-0-0---0-0-0---0-0-0---0-0-0---3-7-6---|
  . .     . .     . .     . .     . .     . .     . .

|-----------------------------------------------------------------|
|-----------------------------------------------------------------|
|-----------------------------------------------------------------|
|-----------------------------------------------------------------|
|-----------------------------------------------------------------|
|-0-0-0---0-0-0---0-0-0---3-7-6---0-0-0---0-0-0---7-6-3---0-0-1---|
  . .     . .     . .             . .     . .             . .

|-----------------------------------------------------------------|
|-----------------------------------------------------------------|
|-----------------------------------------------------------------|
|-----------------------------------------------------------------|
|-----------------------------------------------------------------|
|-0-0-0---0-0-0---0-0-0---0-0-0---0-0-0---0-0-0---0-0-0---0-------|
  . .     . .     . .     . .     . .     . .     . .     .

|---|
|---|
|---|
|-6-|
|-6-|
|-6-|
            
Submit corrections

comments powered by Disqus
↑ Back to top | Nothingface Tabs for Villains. Lyrics for acoustic guitar and electric guitar. Tablatures and chords are parodies/interpretations of the original songs. You may use it for private study, scholarship, research or language learning purposes only