» » »

Nothingface, Undercut Tabs (ver.2)

Artists:  A B C D E F G H I J K L M N O P Q R S T U V W X Y Z # 

Undercut Tabs (ver.2)

Nothingface Tabs
Rating:
0/5 (0 votes)
Undercut lessons Tabs too difficult? Try these video lessons and learn fast
                Nothingface
Undercut

John

Tuning; Drop c (cgcfad)

Riff 1:
D------------------------------------------------------------|
A------------------------------------------------------------|
F------------------------------------------------------------|
C-----------2------------------------------------------------|
G-11-00-1-2-2-0-1-0-3-222--------11-00-1-2-444-666-----------|
C-11-00-1-2---0-1-0-3-222-x's 3 -11-00-1-2-444-666     x's 2-|
pm.. .. . . . . . . . ...        .. .. . .

Riff 2:
D--------------------------------------------|
A--------------------------------------------|
F--------------------------------------------|
C-5----------------------5-------------------|
G-3-------5--0-5---------3-0-4/66-6----------|
C---0-4-6-------- x's 3----0-4/66-6    x's 3-|

Riff 3: hammertime
D--------------------------------------------------------------------|
A--------------------------------------------------------------------|
F-14h15h15h15--------------------------------------------------------|
C--------------------------------------------------------------------|
G--------------5555555----0-7-6-0-7-6-0-7-6-0-7-6--3-000-1-1---------|
C--------------5555555----0-7-6-0-7-6-0-7-6-0-7-6--3-000-1-1   x's 2-|
pm                                                   ...

Riff 1

Riff 2 x's 2

Riff 3

Riff 4A: Palm mutes throughout
D-----------------------------------------------------|
A-----------------------------------------------------|
F-2-2-2-2-2222----------------------------------------|
C-2-2-2-2-2222--4--5/4/3-3-3-3333---------------------|
G-0-0-0-0-0000--2--3/2/1-1-1-1111  played clean x's 6-|
C-----------------------------------------------------|

Riff 4B: Part A played under x's 4
D--------------------------------|
A--------------------------------|
F--------------------------------|
C--------------------------------|
G-77777777-555555-33333333-------|
C-77777777-555555-33333333 x's 4-|

Riff 5:
D-------------------------|
A-------------------------|
F-------------------------|
C-------------------------|
G-2--00-3--7--00-6--------|
C-2--00-3--7--00-6  x's 4-|
pm   ..       ..

I had the most trouble with riff 4,
it is probably off.
            
Submit corrections

comments powered by Disqus
↑ Back to top | Nothingface Tabs for Undercut. Lyrics for acoustic guitar and electric guitar. Tablatures and chords are parodies/interpretations of the original songs. You may use it for private study, scholarship, research or language learning purposes only