» » »

Nothingface, Scission Tabs (ver.1)

Artists:  A B C D E F G H I J K L M N O P Q R S T U V W X Y Z # 

Scission Tabs (ver.1)

Nothingface Tabs
 Rating:
4/5 (4 votes)
Scission lessons Tabs too difficult? Try these video lessons and learn fast
1
                
Tuning: Drop D, Down 1/2 Step (Db,Ab,Db,Gb,Bb,Eb)

CHORUS:
|------------------------------------------------------------------|
|------------------------------------------------------------------|
|------------------------------------------------------------------|
|---7---2--3--5-5--5-5--5-5-5----7---2--8--8-8--888/10101010101010-|
|-5---0----3--3-3--3-3--3-3-3--5---0----8--8-8--888/10101010101010-|
|----------3--3-3--3-3--3-3-3-----------8--8-8--888/10101010101010-|

|-------------------------------------------------------------------|
|-------------------------------------------------------------------|
|-------------------------------------------------------------------|
|---7---2--3--5-5--5-5--5-5-5---------------------------------------|
|-5---0----3--3-3--3-3--3-3-3------3------3----3------3------3----3-|
|----------3--3-3--3-3--3-3-3--1-1----1-1----1----2-2----2-2----2---|

|--------------------------------------|
|--------------------------------------|
|--------------------------------------|
|--------------------------------------|
|-----3------3----3------3------3----3-|
|-1-1----1-1----1----2-2----2-2----2---|

VERSE:
|---------------------------------------------------------------------|
|---------------------------------------------------------------------|
|-7777-6666-------10101010-9999-------5555-4444-------8888-7777-------|
|-5555-5555-555/8--8-8-8-8-8888-888\3-3333-3333-333/6-6666-6666-666\5-|
|-5555-5555-555/8--8-8-8-8-8888-888\3-3333-3333-333/6-6666-6666-666\5-|
|-5555-5555-555/8--8-8-8-8-8888-888\3-3333-3333-333/6-6666-6666-666\5-|

CHORUS FILL: (palm mute)
|------------------|
|------------------|
|------------------|
|------------------|
|-5555555555555555-|
|-5555555555555555-|

INTERLUDE:
|--------------|
|--------------|
|--------------|
|--------------|
|--------------|
|-355355355355-|

INTERLUDE END:
|--------------|
|--------------|
|--------------|
|-8-8-8-8-8/10-|
|-8-8-8-8-8/10-|
|-8-8-8-8-8/10-|

INTERLUDE 2:
|----------------------------------------------------------------------|
|----------------------------------------------------------------------|
|----------------------------------------------------------------------|
|-35535-35535-35535-35535-888810101010-35535-35535-35535-35535-88882222|
|-35535-35535-35535-35535-888810101010-35535-35535-35535-35535-88882222|
|-35535-35535-35535-35535-888810101010-35535-35535-35535-35535-88882222|

CHORUS FILL 2:
|----------------------|
|----------------------|
|----------------------|
|----------------------|
|-----3------3----3--2-|
|-1-1----1-1----1----2-|
            
Submit corrections

comments powered by Disqus
↑ Back to top | Nothingface Tabs for Scission. Lyrics for acoustic guitar and electric guitar. 1 Tablatures and chords are parodies/interpretations of the original songs. You may use it for private study, scholarship, research or language learning purposes only