» » »

Nothingface, Same Solution Tabs (ver.1)

Artists:  A B C D E F G H I J K L M N O P Q R S T U V W X Y Z # 

Same Solution Tabs (ver.1)

Nothingface Tabs
 Rating:
4/5 (7 votes)
Same Solution lessons Tabs too difficult? Try these video lessons and learn fast
1
                
Tuning: 1/2 Step Down, Drop D

RIFF 1:
|------------------------------------------------------------|
|------------------------------------------------------------|
|------------------------------------------------------------|
|--2221110055-22233300550055--2221110055-222333005500550055--|
|--2221110055-22233300550055--2221110055-222333005500550055--|
|--2221110055-22233300550055--2221110055-222333005500550055--|

RIFF 2:
|---------------------------------------------------------|
|---------------------------------------------------------|
|---------------------------------------------------------|
|-2-22-2-22-3-33-3-33-3-3-3-3-5-55-5-55-6-66-6-66-6-6-6-6-|
|-2-22-2-22-3-33-3-33-3-3-3-3-5-55-5-55-6-66-6-66-6-6-6-6-|
|-2-22-2-22-3-33-3-33-3-3-3-3-5-55-5-55-6-66-6-66-6-6-6-6-|
PM  ..   ..   ..   ..   .   .   ..   ..   ..   ..   .   .

|-----------------------------------------------|
|-----------------------------------------------|
|-----------------------------------------------|
|--2-22-2-22-3-33-3-33-3-3-3-3-5-55-5-55-0-0-0--|
|--2-22-2-22-3-33-3-33-3-3-3-3-5-55-5-55-0-0-0--|
|--2-22-2-22-3-33-3-33-3-3-3-3-5-55-5-55-0-0-0--|
PM   ..   ..   ..   ..   .   .   ..   ..

RIFF 3:
|---------------------------------------------------------------|
|---------------------------------------------------------------|
|---------------------------------------------------------------|
|-----------------------------------2---------------------------|
|--3p2-2-2-5p2-2-2-3p2-2-2-5p2-2-2--2-2-2-3-2-2--00-5h7-00-7/8--|
|--3p2-2-2-5p2-2-2-3p2-2-2-5p2-2-2--2-2-2-3-2-2--00-5h7-00-7/8--|
PM                                               ..     ..

RIFF 4:
|----------------------------------|
|----------------------------------|
|----------------------------------|
|--888888888888888877777777-5-8-7--|
|--888888888888888877777777-5-8-7--|
|--888888888888888877777777-5-8-7--|

RIFF 5:
|----------------------------------------------------------------|
|----------------------------------------------------------------|
|----------------------------------------------------------------|
|--------------------------------------------------------------3-|
|-222-2-222-2-222-2-222-2-222-222--222-2-222-2-222-2-222-2-222-3-|
|-222-2-222-2-222-2-222-2-222-222--222-2-222-2-222-2-222-2-222-3-|
PM... . ... . ... . ... . ... ...  ... . ... . ... . ... . ...

|-----------------------------------------|
|-----------------------------------------|
|-----------------------------------------|
|---------------------------------0--1--4-|
|-222-2-222-2-222-2-222-2-222-222-0--1--4-|
|-222-2-222-2-222-2-222-2-222-222-0--1--4-|
PM... . ... . ... . ... . ... ...

RIFF 6:
|---------------------------------------------------------------------|
|---------------------------------------------------------------------|
|---------------------------------------------------------------------|
|----------------------------------------------------------------0-1-4|
|----------------------------------------------------------------0-1-4|
|-022-022-022-022-0222-022-022-022-022-023--022-022-022-022-0222-0-1-4|

RIFF 7: (guitar 1)
|-------------------------------------------|
|-------------------------------------------|
|-------------------------------------------|
|-------------------------------------------|
|--7-7-7-7-8-8-8-8-10-10-10-10-12-12-12-12--|
|--7-7-7-7-8-8-8-8-10-10-10-10-12-12-12-12--|

RIFF 7B: (guitar 2)
|-------------------------------------------------|
|-10-10-10-10-10-10-10-10-10-10-10-10-10-10-10-10-|
|--X--X--X--X--X--X--X--X--X--X--X--X--X--X--X--X-|
|--7--7--7--7--7--7--7--7--7--7--7--7--7--7--7--7-|
|-------------------------------------------------|
|-------------------------------------------------|

RIFF 8:
|---------------------------------------------------------------------|
|---------------------------------------------------------------------|
|---------------------------------------------------------------------|
|---------------------------------------------------------------------|
|-12-12-12-12-12-12-13-13-13-7-7-7-8-8-8-8-3-3-3-3-3-3-10-10-10-7-7-7-|
|-12-12-12-12-12-12-13-13-13-7-7-7-8-8-8-8-3-3-3-3-3-3-10-10-10-7-7-7-|

|------------|
|------------|
|------------|
|------------|
|--10-10-13--|
|--10-10-13--|
            
Submit corrections

comments powered by Disqus
↑ Back to top | Nothingface Tabs for Same Solution. Lyrics for acoustic guitar and electric guitar. 1 Tablatures and chords are parodies/interpretations of the original songs. You may use it for private study, scholarship, research or language learning purposes only