>
 >
Pacifier

Pacifier Guitar Tabs

Nothingface - Pacifier chords, tabs, tablatures, lyrics

Guitar lessons | Add/correct | Request | Top 50 tabs Artists:  A B C D E F G H I J K L M N O P Q R S T U V W X Y Z 0-9

Pacifier Guitar Tabs – Nothingface

CD, Sheet music, Poster

Do you like Pacifier? Share with your friends now
Tabs

Tuning: 1/2 Step Down, Drop D
* - 1st fret.  rest of ones are eleventh

INTRO:
|------------------------------------------------------------------|
|------------------------------------------------------------------|
|------------------------------------------------------------------|
|----666---66666666---666---666666666666---666---66666666---666----|
|-5556665556666666655566655566666666666655566655566666666555666555-|
|----666---66666666---666---666666666666---666---66666666---666----|
PM...   ...        ...   ...            ...   ...        ...   ...

|------------------|
|------------------|
|------------------|
|-6666666666666666-|
|-6666666666666666-|
|-6666666666666666-|
PM.(grad release).

MAIN RIFF:
|-------------------------------------------------|
|-------------------------------------------------|
|-------------------------------------------------|
|-0-0777-6-6----------1010-0-0777-6-6----------**-|
|-0-0777-6-6-111111118-8-8-0-0777-6-6-11111111X11-|
|-0-0777-6-6-111111118-----0-0777-6-6-11111111X11-|
PM                                             ..

|---------------------------------------------------|
|---------------------------------------------------|
|---------------------------------------------------|
|-0-0777-6-6----------1010-0-0777-6-6---------------|
|-0-0777-6-6-111111118-8-8-0-0777-6-6-13131313/1515-|
|-0-0777-6-6-111111118-----0-0777-6-6-13131313/1515-|

VERSE:
|-----------------------------------------|
|-----------------------------------------|
|-----------------------------------------|
|-----------------------------------------|
|------------------88------------------**-|
|-00077766611111188--00077766611111111X11-|
PM.......................................
                              |     1st time|      2nd time|
|-----------------------------|-------------|--------------|
|-----------------------------|-------------|--------------|
|-----------------------------|-------------|--------------|
|-----------------------------|-------------|13131313/1515-|
|------------------88---------|-----------15|13131313/1515-|
|-00077766611111188--000777666|13131313/1515|13131313/1515-|
PM............................ ......

BRIDGE:
|--------------------------------------------------------------|
|--------------------------------------------------------------|
|--------------------------------------------------------------|
|-0-0777-6-6----------1010-0-0777-6-6-111111111111111111111111-|
|-0-0777-6-6-111111118-8-8-0-0777-6-6-111111111111111111111111-|
|-0-0777-6-6-111111118-----0-0777-6-6-111111111111111111111111-|
PM                                    ........................

|-------------------------------------------------------------------|
|-------------------------------------------------------------------|
|-------------------------------------------------------------------|
|-0-0777-6-6----------1010-0-0777-6-6-13131313131313131313131313/15-|
|-0-0777-6-6-111111118-8-8-0-0777-6-6-13131313131313131313131313/15-|
|-0-0777-6-6-111111118-----0-0777-6-6-13131313131313131313131313/15-|

CHORUS:
|---------------------|    |-----------------|
|---------------------|play|-----------------|
|---------------------| 3X |-----------------|
|-3-5-3-5-3-6-----6-3-|then|-----------------|
|-3-5-3-5-3-6-3---6-3-|    |-----------------|
|-3-5-3-5-3-6---6-6-3-|    |-6-5-3-0-6-5-3-0-|

FILL:
|---|
|---|
|-6-|
|-4-|
|-4-|
|-4-|

INTERLUDE: (guitar 1)
|-----------------|
|-----------------|
|-666666666666666-|
|-444444444444444-|
|-444444444444444-|
|-444444444444444-|

INTERLUDE: (guitar 2) (* - 1st time only)
|--------------------------------------------------|
|--------------------------------------------------|
|--------------------------------------------------|
|-*44444444*44444444455556666666666655556663-3-3-3-|
|-*44444444*44444444455556666666666655556663-3-3-3-|
|-*44444444*44444444455556666666666655556663-3-3-3-|

INTERLUDE 2: (guitar 1)
|------------------|
|------------------|
|------------------|
|-3--4--5-6--5-6-3-|
|-3--4--5-6--5-6-3-|
|-3--4--5-6--5-6-3-|

FILL 2:
|---------------------|
|---------------------|
|---------------------|
|---------------------|
|-------------3-------|
|-3-5-3-5-3-6---6-6-3-|

OUTRO: (palm mute)
|-----------------|
|-----------------|
|-----------------|
|-----------------|
|-----------------|
|-6-5-3-0-6-5-3-0-|





Comments


Popular Nothingface tabs & chords
One Thing 1 Bass Tabs
All Cut Up 1 Tabs
God Kill Tabs
Grinning Tabs
Here Come The Butchers 1 Tabs
I, Diablo Tabs
Patricide 1 Tabs
Piss & Vinegar Tabs
Same Solution Tabs
Scission 1 Tabs


Song lyrics



↑ Back to top | Tablatures and chords are parodies/interpretations of the original songs. You may use it for private study, scholarship, research or language learning purposes only
© 2014 AZChords.com Contact us | Privacy policy | DMCA | Add/correct tabs | Request tabs | Top 50 tabs