» » »

Nothingface, One Thing Tabs (ver.1)

Artists:  A B C D E F G H I J K L M N O P Q R S T U V W X Y Z # 

One Thing Tabs (ver.1)

Nothingface Tabs
 Rating:
4/5 (4 votes)
One Thing lessons Tabs too difficult? Try these video lessons and learn fast
                
Tuning: Drop D, 2 Steps Down (A#,F,A#,D#,G,C)

INTRO:
|------------------|
|------------------|
|------------------|
|----666---666--66-|
|-555---555---55---|
|------------------|

BRIDGE:
|-----------------------|
|-----------------------|
|-----------------------|
|-----------------------|
|-000-666-000-666-00-66-|
|-000-666-000-666-00-66-|

BRIDGE B:
|-----------------------|
|-----------------------|
|-----------------------|
|-----------------------|
|-000-666-000-666-00-66-|
|-000-666-000-666-00-66-|
PM...

FILL:
|---|
|---|
|---|
|-0-|
|-0-|
|-0-|

VERSE:
|---------------------------|
|---------------------------|
|---7----7-7-----5-7--7-7-5-|
|-7---77--7-7--6-----6-6----|
|---------------------------|
|---------------------------|

CHORUS:
|---------------------------------|
|---------------------------------|
|-----------------------------5---|
|-0-5-4-0-5-4-0-5-4-0-5-4-0-1-3-1-|
|-0-5-4-0-5-4-0-5-4-0-5-4-0-1-3-1-|
|-0-5-4-0-5-4-0-5-4-0-5-4-0-1-3-1-|

CHORUS B:
|---------------------------------|
|---------------------------------|
|-----------------------------5---|
|-0-5-4-0-5-4-0-5-4-0-5-4-0-1-3-1-|
|-0-5-4-0-5-4-0-5-4-0-5-4-0-1-3-1-|
|-0-5-4-0-5-4-0-5-4-0-5-4-0-1-3-1-|
PM  . .   . .   . .   . .
_______________________________________________________________________


Tuning: 1/2 Step Down, Drop D

INTRO:
|------------------|
|------------------|
|------------------|
|----333---333--33-|
|-222---222---22---|
|------------------|

BRIDGE:
|--------------------------|
|--------------------------|
|--------------------------|
|----101010---101010--1010-|
|-999-8-8-8999-8-8-899-8-8-|
|-999------999------99-----|

CHORUS B:
|--------------------------|
|--------------------------|
|--------------------------|
|----101010---101010--1010-|
|-999-8-8-8999-8-8-899-8-8-|
|-999------999------99-----|
PM...

FILL:
|---|
|---|
|---|
|-9-|
|-9-|
|-9-|

VERSE:
|---------------------------|
|---------------------------|
|---4----4-4-----2-4--4-4-2-|
|-4---44--4-4--3-----3-3----|
|---------------------------|
|---------------------------|

CHORUS:
|------------------------------------|
|------------------------------------|
|------------------------------------|
|---9-8---9-8---9-8---9-8------------|
|-9-7-6-9-7-6-9-7-6-9-7-6-9-10-12-10-|
|-9-----9-----9-----9-----9-10-12-10-|

CHORUS B:
|------------------------------------|
|------------------------------------|
|------------------------------------|
|---9-8---9-8---9-8---9-8------------|
|-9-7-6-9-7-6-9-7-6-9-7-6-9-10-12-10-|
|-9-----9-----9-----9-----9-10-12-10-|
PM  . .   . .   . .   . .
            
Submit corrections

comments powered by Disqus
↑ Back to top | Nothingface Tabs for One Thing. Lyrics for acoustic guitar and electric guitar. Tablatures and chords are parodies/interpretations of the original songs. You may use it for private study, scholarship, research or language learning purposes only