» » »

Lipsdick Tabs (ver.1)

Artists:  A B C D E F G H I J K L M N O P Q R S T U V W X Y Z # 

Lipsdick Tabs (ver.1)

Nothingface
Rating:
5/5 (1 vote)

Hard to play? Try these video lessons and learn fast.
                
Tuning: 1/2 Step Down, Drop D

MAIN RIFF:
|--------------------------------------------|
|--------------------------------------------|
|--------------------------------------------|
|-0-00-7-77-75-8-88-3-33-33-0-00-5-55-555-53-|
|-0-00-7-77-75-8-88-3-33-33-0-00-5-55-555-53-|
|-0-00-7-77-75-8-88-3-33-33-0-00-5-55-555-53-|

|------------------------------------------------------------|
|------------------------------------------------------------|
|------------------------------------------------------------|
|-0-00-7-77-75-8-88-10-1010-1010-0-00-5-55-550-1-1-1-1-1-1-0-|
|-0-00-7-77-75-8-88-10-1010-1010-0-00-5-55-550-1-1-1-1-1-1-0-|
|-0-00-7-77-75-8-88-10-1010-1010-0-00-5-55-550-1-1-1-1-1-1-0-|

FILL:
|-------------------|
|-------------------|
|-7--7--7-7-8-7-7-8-|
|-X--X--X-X-X-X-X-X-|
|-5--5--5-5/6-5-5-6-|
|-------------------|

FILL 2:
|-----------|
|-----------|
|-----------|
|-6-6-6-6-6-|
|-6-6-6-6-6-|
|-6-6-6-6-6-|

VERSE:
|------------------|    |-----------|
|------------------|play|-----------|
|------------------| 3X |-----------|
|-0-0-00-00-066666-|then|-2-3-66666-|
|-0-0-00-00-066666-|    |-2-3-66666-|
|-0-0-00-00-066666-|    |-2-3-66666-|
PM. . .. .. ......

BRIDGE:
|------------------------------------------------------------------|
|------------------------------------------------------------------|
|------------------------------------------------------------------|
|-0-0---00-------0-0---00---------0---0---------0-0---00-----------|
|-0-0-3-00-3h5-3-0-0-3-00-3h5-3-6-0-3-0-3h5-3-3-0-0-3-00-3h5-3-----|
|-0-0---00-------0-0---00---------0---0---------0-0---00-------1-0-|

FILL 3:
|-------------------------------|
|-------------------------------|
|-------------------------------|
|-0-12-0-12-0-12-0-6--6-6-6-6-6-|
|-0-12-0-12-0-12-0-6--6-6-6-6-6-|
|-0-12-0-12-0-12-0-6--6-6-6-6-6-|

FILL 4:
|----------------|
|----------------|
|-8\7-7--7-7-7/8-|
|-X-X-X--X-X-X-X-|
|-6\5-5--5-5-5/6-|
|----------------|

INTERLUDE:
|---------------------------------|
|---------------------------------|
|---------------------------------|
|-0-0-7\6-6\5-5-5\4-4-4\3-3\2-2\1-|
|-0-0-7\6-6\5-5-5\4-4-4\3-3\2-2\1-|
|-0-0-7\6-6\5-5-5\4-4-4\3-3\2-2\1-|

INTERLUDE 2:
|----------------|
|---5---6--6-----|
|---4---5--5-----|
|-2---3-----6666-|
|-2---3-----6666-|
|-2---3-----6666-|

INTERLUDE: (w/ effect)
|---------------------------------|
|---------------------------------|
|---------------------------------|
|-0-0-7\6-6\5-5-5\4-4-4\3-3\2-2\1-|
|---------------------------------|
|---------------------------------|

OUTRO:
|-------------|
|-------------|
|-----4/9-----|
|-0-0-2/7-1-1-|
|-0-0-----1-1-|
|-0-0-----1-1-|
            
Hard to play? Try these video lessons and learn fast. | Correct




comments powered by Disqus
↑ Back to top | Tablatures and chords are parodies/interpretations of the original songs. You may use it for private study, scholarship, research or language learning purposes only