>
 >
Incarnadine

Incarnadine Guitar Tabs

Nothingface - Incarnadine chords, tabs, tablatures, lyrics

Guitar lessons | Add/correct | Request | Top 50 tabs Artists:  A B C D E F G H I J K L M N O P Q R S T U V W X Y Z 0-9

Incarnadine Guitar Tabs – Nothingface

CD, Sheet music, Poster

Do you like Incarnadine? Share with your friends now
Tabs

Tuning: Drop D, Down 1/2 Step (Db,Ab,Db,Gb,Bb,Eb)

VERSE:
|------------------------------------------------------------------|
|------------------------------------------------------------------|
|------------------------------------------------------------------|
|------------------------------------------------------------------|
|-3333-0-2-020202020-3-0-2-020202020-3-0-2-020202020-3-0-2-0202020-|
|-3333-0-2-020202020-3-0-2-020202020-3-0-2-020202020-3-0-2-0202020-|
pm         .........       .........       .........       .......

VERSE B:
|------------------------------------------------------------------|
|------------------------------------------------------------------|
|------------------------------------------------------------------|
|------------------------------------------------------------------|
|-3333-0-2-----------3-0-2-----------3-0-2-----------3-0-2---------|
|-3333-0-2-020202020-3-0-2-020202020-3-0-2-020202020-3-0-2-0202020-|

VERSE FILL:
|--------------|
|--------------|
|-555555555555-|
|-333333333333-|
|-333333333333-|
|-333333333333-|

BRIDGE: (bass arranged for guitar)
|---------------------------------|
|---------------------------------|
|---------------------------------|
|---------------------------------|
|---------------------------------|
|-2-2-2-2-2-2-1-1-1-1-1-1-0-0-0-0-|

BRIDGE:
|-------------|
|-------------|
|---9---8---7-|
|-------------|
|-7---6---5---|
|-------------|

CHORUS: (bass arranged for guitar)
|-------------------|
|-------------------|
|-------------------|
|-2--2-2--1--1-1--0-|
|-2--2-2--1--1-1--0-|
|-2--2-2--1--1-1--0-|

CHORUS:
|-------------------------|
|-------------------------|
|-/9---9\3---3/4-4-4--4/7-|
|--X---X-X---X-X-X-X--X-X-|
|-/7---7\1---1/2-2-2--2/5-|
|-------------------------|

CHORUS FILL:
|---------------------------------|
|---------------------------------|
|-/9---9\3---3/4-4-4--------------|
|--X---X-X---X-X-X-X-3-3-3-3-0-2\-|
|-/7---7\1---1/2-2-2-3-3-3-3-0-2\-|
|--------------------3-3-3-3-0-2\-|

VERSE 2:
|--------------------------------|
|--------------------------------|
|--------------------------------|
|-3-0-2\---3-3-3-3-0-2\---3-0-2\-|
|-3-0-2\---3-3-3-3-0-2\---3-0-2\-|
|-3-0-2\---3-3-3-3-0-2\---3-0-2\-|

|------------------------------------------------------------------|
|------------------------------------------------------------------|
|------------------------------------------------------------------|
|------------------------------------------------------------------|
|-333302-020202020202020101010101010-3-0-2-02020202020202010101010-|
|-333302-020202020202020101010101010-3-0-2-02020202020202010101010-|
pm       ...........................       .......................

|------------------------------------------------------------------|
|------------------------------------------------------------------|
|------------------------------------------------------------------|
|------------------------------------------------------------------|
|-333302-020202020202020101010101010-3-0-2-02020202020202010101010-|
|-333302-020202020202020101010101010-3-0-2-02020202020202010101010-|
pm       ...........................       .......................

|---------|
|---------|
|---------|
|-3333333-|
|-3333333-|
|-3333333-|

INTERLUDE:
|----------------------------------------------------------|
|----------------------------------------------------------|
|----------------------------------------------------------|
|-5XXXX5XXXXXXXX5XXXX5XXXXXXXX4XXXX4XXXXXXXX4XXXX4XXXXXXXX-|
|-5XXXX5XXXXXXXX5XXXX5XXXXXXXX4XXXX4XXXXXXXX4XXXX4XXXXXXXX-|
|-5XXXX5XXXXXXXX5XXXX5XXXXXXXX4XXXX4XXXXXXXX4XXXX4XXXXXXXX-|

INTERLUDE 2:
|------------------|
|------------------|
|------------------|
|-5----4----5----4-|
|-5----4----5----4-|
|-5----4----5----4-|

INTERLUDE 3:
|-----------------------------------------------|
|-----------------------------------------------|
|-------------------0---------------------------|
|---0-----0-----------0-------0--0--0-0--0--0-0-|
|---------------7-------7--3--3--3--3-3--3--3-3-|
|-5---5-7---7-8---8--------4--4--4--4-4--4--4-4-|

INTERLUDE 4:
|----------------------------|
|----------------------------|
|-------------------0--------|
|---0-----0-----------0----0-|
|---------------7-------7--3-|
|-5---5-7---7-8---8--------4-|

|-------------------------------------------------|
|-------------------------------------------------|
|-------------------0-----------------------------|
|---0-----0-----------0---------0-----0-----0-----|
|---------------7-------7---3-----3-----3-----3---|
|-5---5-7---7-8---8-------4---4-----4-----4-----4-|

|-------------------------|
|-------------------------|
|-------------------0-----|
|---0-----0-----------0---|
|---------------7-------7-|
|-5---5-7---7-8---8-------|

INTERLUDE 5:
|---------------------------------|
|---------------------------------|
|---------------------------------|
|-4-4-4-4-4-4-4-5-2-2-2-2-2-2-2-5-|
|-4-4-4-4-4-4-4-5-2-2-2-2-2-2-2-5-|
|-4-4-4-4-4-4-4-5-2-2-2-2-2-2-2-5-|

INTERLUDE 5 FILL:
|---------------------------------|
|---------------------------------|
|---------------------------------|
|-4-4-4-4-4-4-4-5-2-2-2-2-2-2-2-2-|
|-4-4-4-4-4-4-4-5-2-2-2-2-2-2-2-2-|
|-4-4-4-4-4-4-4-5-2-2-2-2-2-2-2-2-|

INTERLUDE 6:
|---------------------------------|
|---------------------------------|
|---------------------------------|
|-0-0-0-0-0-0-0-3-1-1-1-1-1-1-1-3-|
|-0-0-0-0-0-0-0-3-1-1-1-1-1-1-1-3-|
|-0-0-0-0-0-0-0-3-1-1-1-1-1-1-1-3-|

INTERLUDE 6 FILL:
|---------------------------------|
|---------------------------------|
|---------------------------------|
|-0-0-0-0-0-0-0-3-1-1-1-1-1-1-1-5-|
|-0-0-0-0-0-0-0-3-1-1-1-1-1-1-1-5-|
|-0-0-0-0-0-0-0-3-1-1-1-1-1-1-1-5-|

INTERLUDE 7:
|-----------------------------------------------------------------|
|-----------------------------------------------------------------|
|-----------------------------------------------------------------|
|-----------------4-4-4-5-5-5-5-5---------------------------------|
|-0-0-0-2-2-2-2-2-2-2-2-3-3-3-3-3-6-6-6-6-6-6-6-6-6-6-6-6-6-6-6-6-|
|-0-0-0-2-2-2-2-2-----------------7-7-7-7-7-7-7-7-7-7-7-7-7-7-7-7-|

INTERLUDE 8: (bass arranged for guitar)
|---------------------------------------------------|
|---------------------------------------------------|
|----------4--5--2----------------------------------|
|-0--2--3--4--5--2--4-4-4-4-4-4-4-4-4-4-4-4-4-4-4-4-|
|-0--2--3--2--3--0--4-4-4-4-4-4-4-4-4-4-4-4-4-4-4-4-|
|-0--2--3-----------4-4-4-4-4-4-4-4-4-4-4-4-4-4-4-4-|

|---------------------------------------------------------------------|
|---------------------------------------------------------------------|
|----------4--5--2--------------------------------------------4--5--2-|
|-0--2--3--4--5--2--6-6-6-6-6-6-6-6-6-6-6-6-6-6-6-6--0--2--3--4--5--2-|
|-0--2--3--2--3--0--6-6-6-6-6-6-6-6-6-6-6-6-6-6-6-6--0--2--3--2--3--0-|
|-0--2--3-----------6-6-6-6-6-6-6-6-6-6-6-6-6-6-6-6--0--2--3----------|

INTERLUDE 8:
|--------------------------------------------------|
|--------------------------------------------------|
|-777777777777777711111111111111111111111111111111-|
|-XXXXXXXXXXXXXXXX-X-X-X-X-X-X-X-X-X-X-X-X-X-X-X-X-|
|-5555555555555555-9-9-9-9-9-9-9-9-9-9-9-9-9-9-9-9-|
|--------------------------------------------------|

|------------------------------------------------------------------|
|------------------------------------------------------------------|
|-1515151515151515151515151515151515151515151515151515151515151515-|
|--X-X-X-X-X-X-X-X-X-X-X-X-X-X-X-X-X-X-X-X-X-X-X-X-X-X-X-X-X-X-X-X-|
|-1313131313131313131313131313131313131313131313131313131313131313-|
|------------------------------------------------------------------|

|----------------------------------------------------------------------|
|----------------------------------------------------------------------|
|-99999999999999999999999999999999-13-13-13-13-13-13-13-13-13-13-13-13-|
|-XXXXXXXXXXXXXXXXXXXXXXXXXXXXXXXX--X--X--X--X--X--X--X--X--X--X--X--X-|
|-77777777777777777777777777777777-11-11-11-11-11-11-11-11-11-11-11-11-|
|----------------------------------------------------------------------|

|--------------------------------------------------|
|--------------------------------------------------|
|-777777777777777711111111111111111111111111111111-|
|-XXXXXXXXXXXXXXXX-X-X-X-X-X-X-X-X-X-X-X-X-X-X-X-X-|
|-5555555555555555-9-9-9-9-9-9-9-9-9-9-9-9-9-9-9-9-|
|--------------------------------------------------|

OUTRO:
|-------------------------------------------------|
|-------------------------------------------------|
|-------------------0-----------------------------|
|---0-----0-----------0---------0-----0-----0-----|
|---------------7-------7---3-----3-----3-----3---|
|-5---5-7---7-8---8-------4---4-----4-----4-----4-|

|---------------------------|
|---------------------------|
|-------------------0-------|
|---0-----0-----------0---4-|
|---------------7-------7-4-|
|-5---5-7---7-8---8-------4-|





Comments


Popular Nothingface tabs & chords
American Love 1 Bass Tabs
One Thing 1 Bass Tabs
Big Fun At The Gallows Tabs
Ether 1 Tabs
Hitch Tabs
Lipsdick Tabs
Patricide 1 Tabs
Piss And Vinegar Tabs
So Few Tabs
Tsick Tabs


Song lyrics



↑ Back to top | Tablatures and chords are parodies/interpretations of the original songs. You may use it for private study, scholarship, research or language learning purposes only
© 2014 AZChords.com Contact us | Privacy policy | DMCA | Add/correct tabs | Request tabs | Top 50 tabs