» » »

Hidden Hands Tabs (ver.1)

Artists:  A B C D E F G H I J K L M N O P Q R S T U V W X Y Z # 

Hidden Hands Tabs (ver.1)

Nothingface
Rating:
5/5 (1 vote)

Hard to play? Try these video lessons and learn fast.
                
Tuning: 1/2 Step Down, Drop D

INTRO:
|-------------------|
|--5-5-5-5-5-5-5-5--|
|--6-6-6-6-6-6-6-6--|
|--4-4-4-4-4-4-4-4--|
|--4-4-4-4-4-4-4-4--|
|--4-4-4-4-4-4-4-4--|

INTRO B:
|------------------------------------------------------------------|
|------------------------------------------------------------------|
|-6666666666666666666666666666666655555555555555555555555555555555-|
|-4444444444444444444444444444444433333333333333333333333333333333-|
|-4444444444444444444444444444444433333333333333333333333333333333-|
|-4444444444444444444444444444444433333333333333333333333333333333-|

|------------------------------------------------------------------|
|------------------------------------------------------------------|
|-8888888888888888999999999999999911111111111111111111111111111111-|
|-66666666666666667777777777777777-9-9-9-9-9-9-9-9-9-9-9-9-9-9-9-9-|
|-66666666666666667777777777777777-9-9-9-9-9-9-9-9-9-9-9-9-9-9-9-9-|
|-66666666666666667777777777777777-9-9-9-9-9-9-9-9-9-9-9-9-9-9-9-9-|

|------------------|
|------------------|
|-9999999999999999-|
|-7777777777777777-|
|-7777777777777777-|
|-7777777777777777-|

VERSE:
|-----------------------------------|
|-----------------------------------|
|-----------------------------------|
|-----------------------------------|
|--00-8757-55-7535-222322242226535--|
|--00-8757-55-7535-222322242226535--|

FILL 1: (palm mute)
|---------------|
|---------------|
|---------------|
|---------------|
|--3-2-3-5-3-5--|
|--3-2-3-5-3-5--|

CHORUS:
|------------------------------------------------------|
|------------------------------------------------------|
|------------------------------------------------------|
|--66655533310101099912121213131312121215151599999999--|
|--66655533310101099912121213131312121215151599999999--|
|--66655533310101099912121213131312121215151599999999--|

|--------------------------------------------------------|
|--------------------------------------------------------|
|--------------------------------------------------------|
|--6665553331010109991212121313131212121515151515151515--|
|--6665553331010109991212121313131212121515151515151515--|
|--6665553331010109991212121313131212121515151515151515--|

BRIDGE:
|---------------------------------------------------------------|
|---------------------------------------------------------------|
|-99999-99999-99999-99999-99999-99-1111111111-1111111111-111112-|
|-77777-77777-77777-77777-77777-77--9-9-9-9-9--9-9-9-9-9--9-910-|
|-77777-77777-77777-77777-77777-77--9-9-9-9-9--9-9-9-9-9--9-910-|
|-77777-77777-77777-77777-77777-77--9-9-9-9-9--9-9-9-9-9--9-910-|

|--------------------|
|--------------------|
|--88888-88888-8888--|
|--66666-66666-6666--|
|--66666-66666-6666--|
|--66666-66666-6666--|

BRIDGE B:
|------------------------------------------------------------------|
|------------------------------------------------------------------|
|-9999999999999999999999999999999911111111111111111111111112121212-|
|-77777777777777777777777777777777-9-9-9-9-9-9-9-9-9-9-9-910101010-|
|-77777777777777777777777777777777-9-9-9-9-9-9-9-9-9-9-9-910101010-|
|-77777777777777777777777777777777-9-9-9-9-9-9-9-9-9-9-9-910101010-|

|--------------------|
|--------------------|
|--8888888888888888--|
|--6666666666666666--|
|--6666666666666666--|
|--6666666666666666--|

INTERLUDE:
|------------------------------------------|
|------------------------------------------|
|------------------------------------------|
|--2222333355556666--66660000222210101010--|
|--2222333355556666--66660000222210101010--|
|--2222333355556666--66660000222210101010--|
            
Hard to play? Try these video lessons and learn fast. | Correct




comments powered by Disqus
↑ Back to top | Tablatures and chords are parodies/interpretations of the original songs. You may use it for private study, scholarship, research or language learning purposes only