» » »

Nothingface, Here Come The Butchers Tabs (ver.2)

Artists:  A B C D E F G H I J K L M N O P Q R S T U V W X Y Z # 

Here Come The Butchers Tabs (ver.2)

Nothingface Tabs
 Rating:
4/5 (4 votes)
Here Come The Butchers lessons Tabs too difficult? Try these video lessons and learn fast
1
                Nothingface
Here Come the Butchers
Skeletons
2003


!!ENJOY!! ^_^


Enter::



1st Verse (G1)
C |------------------|
G |-5555555555555555-|
Eb|-7777777777777777-|
Bb|------------------|
F |------------------|
Bb|------------------|

Guitar #2 (1st Verse)
C |--------------------------|
G |--------------------------|
Eb|--------------------------|
Bb|--------------------------|
F |--------------------------|
Bb|-5--5--3-5--3-555-3--5--3-|


Chorus
C |--------------------------|
G |--------------------------|
Eb|--------------------------|
Bb|-2--2--0-2--0-222-0--2--0-|
F |-2--2--0-2--0-222-0--2--0-|
Bb|-2--2--0-2--0-222-0--2--0-|


2nd Verse
C |--------------------------|
G |--------------------------|
Eb|--------------------------|
Bb|--------------------------|
F |--------------------------|
Bb|-5--5--3-5--3-555-3--5--3-|


Chorus
C |--------------------------|
G |--------------------------|
Eb|--------------------------|
Bb|-2--2--0-2--0-222-0--2--0-|
F |-2--2--0-2--0-222-0--2--0-|
Bb|-2--2--0-2--0-222-0--2--0-|



3rd Verse
C |----(feedback)-|
G |-3*------------|
Eb|-3*------------|
Bb|-3*------------|
F |---------------|
Bb|---------------|



Chorus
C |--------------------------|-(Fill)-|
G |--------------------------|--------|
Eb|--------------------------|--------|
Bb|-2--2--0-2--0-222-0--2--0-|--------|
F |-2--2--0-2--0-222-0--2--0-|--------|
Bb|-2--2--0-2--0-222-0--2--0-|-14\\\--|




Bridge:
C |-------------------------|
G |-------------------------|
Eb|-------------------------|
Bb|-2-----3-----5-----6-----|
F |-2--02-3--23-5--35-6--35-|
Bb|-2--02-3--23-5--35-6--35-|
       ..    ..    ..    ..


C |-------------------------------|
G |-------------------------------|
Eb|-------------------------------|
Bb|-6\\\-0---654--3/10-10-10--3-3-|
F |-6\\\-0---654--3/10-10-10--3-3-|
Bb|-6\\\-0---654-03/10-10-10--3-3-|

C |---------------------------------|
G |---------------------------------|
Eb|---------------------------------|
Bb|-6\\\-0---654--3/10-10-10---3--6-|
F |-6\\\-0---654--3/10-10-10--x3-x6-|
Bb|-6\\\-0---654-03/10-10-10--x3-x6-|

C |-------------|
G |-------------|
Eb|-------------|
Bb|-0-----------|
F |-0-----------|
Bb|-0-(ringout)-|

C |----------|
G |----------|
Eb|----------|
Bb|-------0--|
F |-3212--0--|
Bb|-3212--0R-|

C |--------------------------------------------|
G |--------------------------------------------|
Eb|-5/7----7/8----8/10---10/12---10/11---14/13-|
Bb|-x/x----x/x----x/x----x-/x----x-/x----x-/x--|
F |-3/5----5/6----6/8----8-/9----8-/9----12/11-|
Bb|-----00-----00-----00------00------00-------|
        ..     ..     ..      ..      ..


All together:
C |-----------------------------------------------------|
G |-----------------------------------------------------|
Eb|----------5/7----7/8----8/10---10/12---10/11---14/13-|
Bb|----------x/x----x/x----x/x----x-/x----x-/x----x-/x--|
F |-3212-0---3/5----5/6----6/8----8-/9----8-/9----12/11-|
Bb|-3212-0R------00-----00-----00------00------00-------|
    ....         ..     ..     ..      ..      ..


C |-----------------------------------------------
G |-----------------------------------------------
Eb|-------13-13------13-13------13-13------13-13--
Bb|-------12-12------12-12------12-12------12-12--
F |-3212--11-11------11-11------11-11------11-11--
Bb|-3212--------00-0-------00-0-------00-0--------
    ....        .. .       .. .       .. .

C |---------------------------------------------||
G |---------------------------------------------||
Eb|-----------------13-13------13-13------13-13-||
Bb|-------0-0-------12-12------12-12------12-12-||
F |-3212--0-0-------11-11------11-11------11-11-||
Bb|-3212--0-0--00-0-------00-0-------00-0-------||
    ....       .. .       .. .       .. .

C |--------------------------|
G |--------------------------|
Eb|--------------------------|
Bb|-5--5--3-5--3-555-3--5--3-|
F |-5--5--3-5--3-555-3--5--3-|
Bb|-5--5--3-5--3-555-3--5--3-|

C |--------------------------------|
G |--------------------------------|
Eb|-----------------(N. Harmonics)-|
Bb|-5--5--3-5--3-55--3*3*3*3*3*3*--|
F |-5--5--3-5--3-55--3*3*3*3*3*3*--|
Bb|-5--5--3-5--3-55--3*3*3*3*3*3*--|




Chorus
C |--------------------------|
G |--------------------------|
Eb|--------------------------|
Bb|-2--2--0-2--0-222-0--2--0-|
F |-2--2--0-2--0-222-0--2--0-|
Bb|-2--2--0-2--0-222-0--2--0-|


FILL (Last Thing...)
C |-------------------------------|
G |-------------------------------|
Eb|-------------------------------|
Bb|-2--2--0-2--0-222-0--2--0--2-1-|
F |-2--2--0-2--0-222-0--2--0--2-1-|
Bb|-2--2--0-2--0-222-0--2--0--2-1-|


*Dead*
lol
            
Submit corrections

comments powered by Disqus
↑ Back to top | Nothingface Tabs for Here Come The Butchers. Lyrics for acoustic guitar and electric guitar. 1 Tablatures and chords are parodies/interpretations of the original songs. You may use it for private study, scholarship, research or language learning purposes only