» » »

For All The Sin Tabs (ver.2)

Artists:  A B C D E F G H I J K L M N O P Q R S T U V W X Y Z # 

For All The Sin Tabs (ver.2)

Nothingface
Rating:
0/5 (0 votes)

Hard to play? Try these video lessons and learn fast.
                
Tuning: 1/2 Step Down, Drop D

INTRO: (clean)
|----------------------------------------|
|----------------------------------------|
|----0-----0-----0-----0-----0-----0-4---|
|---5-5-5-5-5-5-4-4-4-4-4-4-5-5-5-5-5-5--|
|--4---4-4---4-3---3-3---3-4---4-4-------|
|----------------------------------------|

RIFF 1: (distortion)
|------------------------------------------|
|------------------------------------------|
|------333-----344434-----333--------------|
|--444-----444--------444-----44455522255--|
|--444-----444--------444-----44455522255--|
|--444-----444--------444-----44455522255--|

|-----------------------------------------------|
|-----------------------------------------------|
|------333-----344434-----333-------------------|
|--444-----444--------444-----44-7-00-7-00-7-0--|
|--444-----444--------444-----44-7-00-7-00-7-0--|
|--444-----444--------444-----44-7-00-7-00-7-0--|
PM                                 ..   ..

RIFF 2: (clean)
|----------------------------------------------------------------|
|-7-7-77-7-77-77-8-8-88-8-88-88-3-3-33-3-33-33-9-9-9-10-10-10-10-|
|-6-6-66-6-66-66-7-7-77-7-77-77-2-2-22-2-22-22-8-8-8--9--9--9--9-|
|-4-4-44-4-44-44-5-5-55-5-55-55-0-0-00-0-00-00-6-6-6--7--7--7--7-|
|-4-4-44-4-44-44-5-5-55-5-55-55-0-0-00-0-00-00-6-6-6--7--7--7--7-|
|-4-4-44-4-44-44-5-5-55-5-55-55-0-0-00-0-00-00-6-6-6--7--7--7--7-|

RIFF 3: (distortion)
|-------------------------------------------------------------------|
|-------------------------------------------------------------------|
|-------------------------------------------------------------------|
|--4-4-4-4-4-4-4-4-5-5-5-5-5-5-5-5-0-0-0-0-0-0-0-0-6-6-6-6-7-7-7-7--|
|--4-4-4-4-4-4-4-4-5-5-5-5-5-5-5-5-0-0-0-0-0-0-0-0-6-6-6-6-7-7-7-7--|
|--4-4-4-4-4-4-4-4-5-5-5-5-5-5-5-5-0-0-0-0-0-0-0-0-6-6-6-6-7-7-7-7--|

RIFF 4: (distortion)
|-------------------------|
|-------------------------|
|-------------------------|
|--444-045-057-078--0575--|
|--444-045-057-078--0575--|
|--444-045-057-078--0575--|

RIFF 5: (w/ effect)
|-------------------------|
|-------------------------|
|-------------------------|
|-------------------------|
|-------------------------|
|--444-045-057-078--0575--|

RIFF 6:
|-----------------------|
|-----------------------|
|-----------------------|
|--444-045-057-078-057--|
|--444-045-057-078-057--|
|--444-045-057-078-057--|
            
Hard to play? Try these video lessons and learn fast. | Correct




comments powered by Disqus
↑ Back to top | Tablatures and chords are parodies/interpretations of the original songs. You may use it for private study, scholarship, research or language learning purposes only