» » »

Nothingface, Filthy Tabs (ver.1)

Artists:  A B C D E F G H I J K L M N O P Q R S T U V W X Y Z # 

Filthy Tabs (ver.1)

Nothingface Tabs
 Rating:
4/5 (5 votes)
Filthy lessons Tabs too difficult? Try these video lessons and learn fast
1
                
Tuning: 1/2 Step Down, Drop D

INTRO: (w/ delay)
|--------------------------------------|
|--------------------------------------|
|----------------------------------11--|
|--0-0--0--1-1--1--0-0--0--1-1--1------|
|--0-0--0--1-1--1--0-0--0--1-1--1------|
|--0-0--0--1-1--1--0-0--0--1-1--1------|

VERSE:
|--------------------------------|--------|
|--------------------------------|--------|
|--------------------------------|--------|
|--0-0----------------1-1--eleven|one-----|
|--0-0--121212666555--1-1--111111|1114-4--|
|--0-0--121212666555--1-1--111111|1114-4--|
PM      ............       ...... ...

BRIDGE:
|------------------------------------------|
|------------------------------------------|
|------------------------------------------|
|--8-4-5-XX-8-4-5-4555-411-XX-4-1-5-4-8-7--|
|--8-4-5-XX-8-4-5-4555-411-XX-4-1-5-4-8-7--|
|--8-4-5-XX-8-4-5-4555-411-XX-4-1-5-4-8-7--|

FILL 1:
|---------------------------------------|
|---------------------------------------|
|---------------------------------------|
|---------------------7776663336662222--|
|--333222777666101099-7776663336662222--|
|--333222777666101099-7776663336662222--|
PM ..................

CHORUS: (* - 10th fret or above)
|--------------------------------------------------------------|
|--------------------------------------------------------------|
|--------------------------------------------------------------|
|-----------********-**-**------------******-------------------|
|--33322200010101010910\1133322277766610101097776663336662222--|
|--33322200010101010910\1133322277766610101097776663336662222--|

|-----------------------------------------------------------------|
|-----------------------------------------------------------------|
|-----------------------------------------------------------------|
|-----------********-**-**-----------****-------------------------|
|--33322200010101010910\11-3332-7776-101099-7776-3336662222-3332--|
|--33322200010101010910\11-3332-7776-101099-7776-3336662222-3332--|

|---------------------|
|---------------------|
|---------------------|
|--************7-5-3--|
|--1212121010107-5-3--|
|--1212121010107-5-3--|

FILL 2:
|---------------------------------------------------------------|
|---------------------------------------------------------------|
|--------------4p0-------------4p0-------------4p0-----0-----0--|
|----3---3---3-------3---3---3-------3---3---3-------0-----0----|
|--------------------------------------------------0-----1------|
|--3---3---3-------2---2---2-------3---3---3-------0-----1------|

|---------------------------------------------------------------|
|---------------------------------------------------------------|
|--------------4-0-------------4-0-------------4-0-----0-----0--|
|----3---3---3-------3---3---3-------3---3---3-------0-----0----|
|--------------------------------------------------0-----1------|
|--3---3---3-------2---2---2-------3---3---3-------0-----1------|

INTERLUDE: (w/ light flange)
|-----------------------------------|
|-----------------------------------|
|-----------------------------------|
|-----------------------------------|
|-----------------------------------|
|--3-0-6-0-3-0-0-3-0-6-0-3-0-7-8-7--|

INTERLUDE 2:
|-----------------------------------|
|-----------------------------------|
|-----------------------------------|
|--3-0-6-0-3-0-0-3-0-6-0-3-0-7-8-7--|
|--3-0-6-0-3-0-0-3-0-6-0-3-0-7-8-7--|
|--3-0-6-0-3-0-0-3-0-6-0-3-0-7-8-7--|

INTERLUDE 3:
|---------------------------------------|
|---------------------------------------|
|---------------------------------------|
|---------------------------------------|
|--766666109999932--766666109999932-32--|
|--766666109999932--766666109999932-32--|

|-----------------------------------------|
|-----------------------------------------|
|-----------------------------------------|
|-----------------------------------------|
|--76666610999993222--766666109999932-32--|
|--76666610999993222--766666109999932-32--|
            
Submit corrections

comments powered by Disqus
↑ Back to top | Nothingface Tabs for Filthy. Lyrics for acoustic guitar and electric guitar. 1 Tablatures and chords are parodies/interpretations of the original songs. You may use it for private study, scholarship, research or language learning purposes only