» » »

Nothingface, Dead Like Me Tabs (ver.1)

Artists:  A B C D E F G H I J K L M N O P Q R S T U V W X Y Z # 

Dead Like Me Tabs (ver.1)

Nothingface Tabs
 Rating:
4.4/5 (7 votes)
Dead Like Me lessons Tabs too difficult? Try these video lessons and learn fast
1
                
Tuning: 1/2 Step Down, Drop D

INTRO:
|-------------------------------------------------------------------|
|-------------------------------------------------------------------|
|-------------------------------------------------------------------|
|----------------------------------------------------3-3-3-2-2-2-0--|
|----------------------------------1-1-1-5-5-5-4-4-4-3-3-3-2-2-2-0--|
|--1-1-1-5-5-5-4-4-4-3-3-3-2-2-0-0-1-1-1-5-5-5-4-4-4-3-3-3-2-2-2-0--|
PM . . . . . . . . . . . . . . . . . . . . . . . .

CHORUS:
|-------------------------------------------------------------------|
|-------------------------------------------------------------------|
|-------------------------------------------------------------------|
|--777777772222223300000000444444443333333355555555777777779999XX9\-|
|--777777772222223300000000444444443333333355555555777777779999XX9\-|
|--777777772222223300000000444444443333333355555555777777779999XX9\-|

|------------------------------------------------|
|------------------------------------------------|
|------------------------------------------------|
|--3333333322222222000000004444444433333333-5-7--|
|--3333333322222222000000004444444433333333-5-7--|
|--3333333322222222000000004444444433333333-5-7--|

VERSE 1:
|---------------------------------------------------------------|
|---------------------------------------------------------------|
|---------------------------------------------------------------|
|-----------------------------------------------111555444333220-|
|--7775-7775-578--9997-9997-7910-7775-7775-578--111555444333220-|
|--7775-7775-578--9997-9997-7910-7775-7775-578--111555444333220-|

PRECHORUS: (palm mute)
|-------------------------------------|
|-------------------------------------|
|-------------------------------------|
|--1-1-1-5-5-5-4-4-4-3-3-3-2-2-2-0-0--|
|--1-1-1-5-5-5-4-4-4-3-3-3-2-2-2-0-0--|
|--1-1-1-5-5-5-4-4-4-3-3-3-2-2-2-0-0--|

VERSE 2:
|--------------------------------------------------------------|
|--------------------------------------------------------------|
|--------------------------------------------------------------|
|-----------------------------------------------11155544433322-|
|--7775577755578--99977999777910-7775577755578--11155544433322-|
|--7775577755578--99977999777910-7775577755578--11155544433322-|

INTERLUDE: (clean)
|----------------------------------|
|--3-3-33-3-33333--5-5-55-5-55555--|
|--2-2-22-2-22222--4-4-44-4-44444--|
|--0-0-00-0-00000--2-2-22-2-22222--|
|----------------------------------|
|----------------------------------|

INTERLUDE B: (distortion)
|-----------------------------|
|--8-8-8-8-8-8-8-8-8-8-8-8-8--|
|--7-7-7-7-7-7-7-7-7-7-7-7-7--|
|--5-5-5-5-5-5-5-5-5-5-5-5-5--|
|--5-5-5-5-5-5-5-5-5-5-5-5-5--|
|--5-5-5-5-5-5-5-5-5-5-5-5-5--|

INTERLUDE C:
|--------------------------------------------------------------|
|--------------------------------------------------------------|
|--------------------------------------------------------------|
|--77777710--10--6666XX6666XX66--77777710--10--4444XX1111XXX1--|
|--77777710--10--6666XX6666XX66--77777710--10--4444XX1111XXX1--|
|--77777710--10--6666XX6666XX66--77777710--10--4444XX1111XXX1--|

FILL 1:
|-------------|
|-------------|
|-------------|
|--4444-1111--|
|--4444-1111--|
|--4444-1111--|
            
Submit corrections

comments powered by Disqus
↑ Back to top | Nothingface Tabs for Dead Like Me. Lyrics for acoustic guitar and electric guitar. 1 Tablatures and chords are parodies/interpretations of the original songs. You may use it for private study, scholarship, research or language learning purposes only