» » »

Nothingface, Carousel Tabs (ver.1)

Artists:  A B C D E F G H I J K L M N O P Q R S T U V W X Y Z # 

Carousel Tabs (ver.1)

Nothingface Tabs
 Rating:
4/5 (4 votes)
Carousel lessons Tabs too difficult? Try these video lessons and learn fast
1
                Band: Nothingface


Tuning: Drop D

Riff 1:
E-------------------------------------------------------------------------------------------------------|
B-------------------------------------------------------------------------------------------------------|
G-------------------------------------------------------------------------------------------------------|
D-----------------------------------------------------5/8/7---------------------------------------------|
A----55----5-666---5h3----5h3----5-66--5h3----5h3-----3/6/5--5h3----5h3----5-66------55----5-666--------|
D-00-55-00-5-666---5h3-00-5h3-00-5-66--5h3-00-5h3-00---------5h3-00-5h3-00-5-66-0000-55-00-5-666 x's 2--|
pm..    ..             ..     ..           ..     ..             ..     ..      ....    ..

Riff 2:
E------------------------------------------------------------|
B------------------------------------------------------------|
G------------------------------------------------------------|
D---------------------5/8/7----------------------------------|
A-----5-----5-5-----5-3/6/5-----5-----5-5-----6----777-------|
D-000-5-000-5-5-000-5-------000-5-000-5-5-000-6-00-777 x's 4-|
pm...   ...     ...         ...   ...     ...   ..

Riff 3:
E-------------------------------------------------------------|
B-------------------------------------------------------------|
G---2-1----6-5----2-1------------2-1----6-5----2-1------------|
D-------------------------------------------------------------|
A-1------5------1-----1/4-4-3--1------5------1------6-6-6-777-|
D-1------5------1-----1/4-4-3--1------5------1------6-6-6-777-|

Riff 4:
E-------------------------------------------|
B-------------------------------------------|
G-------------------------------------------|
D-------------------------------------------|
A-0-3/6--0-6/9--0-3/6-----55----5-666-------|
D-0-3/6--0-6/9--0-3/6--00-55-00-5-666 x's 2-|
pm                     ..    ..

Riff 1

Riff 2 x's 2

Riff 3

Riff 4

Riff 5:
E---------------------------------------------|
B---------------------------------------------|
G---------------------------------------------|
D---------------------------------------------|
A---------------------------------------------|
D-0-99-8-0-77-6-0-55-4-0-33-2-0-22-11-0 x's 4-|

Riff 6:
E---------------------------------------------|
B---------------------------------------------|
G---------------------------------------------|
D---------------------------------------------|
A-0-99-8-0-77-6-0-55-4-0-33-2-0-22-11-0-------|
D-0-99-8-0-77-6-0-55-4-0-33-2-0-22-11-0 x's 4-|

Riff 7:
E--------------------------------------------------------------------------------------------------------------|
B--------------------------------------------------------------------------------------------------------------|
G--------------------------------------------------------------------------------------------------------------|
D--------------------------------------------------------------------------------------------------------------|
A-0-4-0-4-0-4-0-4-0-6-0-6-0-6--0-4-0-4-0-4-0-4-0-6-0-6-0-6-0-6--0-4-0-4-0-4-0-4-0-6-0-6-0-6-0-6-0-6-0-6--------|
D-0-4-0-4-0-4-0-4-0-6-0-6-0-6--0-4-0-4-0-4-0-4-0-6-0-6-0-6-0-6--0-4-0-4-0-4-0-4-0-6-0-6-0-6-0-6-0-6-0-6 x's 2--|
pm. . . . . . . . . . . . . .  . . . . . . . . . . . . . . . .  . . . . . . . . . . . . . . . . . . . .

Riff 8:
E-----------------------------------|
B-----------------------------------|
G-----------------------------------|
D-----------------------------------|
A-0-6-0-6-0-6-0-6-0-6---------------|
D-0-6-0-6-0-6-0-6-0-6-444-3-2 x's 4-|
pm. . . . . . . . . . ... . .

Riff 4

Riff 1
            
Submit corrections

comments powered by Disqus
↑ Back to top | Nothingface Tabs for Carousel. Lyrics for acoustic guitar and electric guitar. 1 Tablatures and chords are parodies/interpretations of the original songs. You may use it for private study, scholarship, research or language learning purposes only