» » »

Nothingface, Breath Out Bass tabs (ver.1)

Artists:  A B C D E F G H I J K L M N O P Q R S T U V W X Y Z # 

Breath Out Bass tabs (ver.1)

Nothingface Tabs
 Rating:
4/5 (4 votes)
Breath Out lessons Tabs too difficult? Try these video lessons and learn fast
                the correct tunning is CGCF but if you do it in dropped D this are the corrct notes
Drop D


Intro
G------------------------------------
D------------------------------------
A-0-6-4-0-6-4-0-6-4-0-6-4-0-6-4-7-7-7
D------------------------------------

Third Part Of The Intro
G------------------------------------------
D---4---4---4---4---4---4---4---4---4-7-6-7
A-5---5---5---5---5---5---5---5---5--------
D------------------------------------------

Verse
G------
D------
A------
D-0-0-0

Verse And Part Of The Outro And Also Part Of The Intro
G------------------
D------------------
A------------------
D-0-4-2-0-4-2-5-5-5

Bridge
G---------------------------------------------- 
D----------------------------------------------  
A---------------------------------------------- 
D-0-0-0-0-0-0-0-0-0-0-0-0-0-0-0-0-0-0-0-0-0-0-0


you figure out the order i mean you have a brain don`t you
            
Submit corrections

comments powered by Disqus
↑ Back to top | Nothingface Bass for Breath Out. Lyrics for acoustic guitar and electric guitar. Tablatures and chords are parodies/interpretations of the original songs. You may use it for private study, scholarship, research or language learning purposes only