>
 >
Blue Skin 1

Blue Skin 1 Guitar Tabs

Nothingface - Blue Skin 1 chords, tabs, tablatures, lyrics

Guitar lessons | Add/correct | Request | Top 50 tabs Artists:  A B C D E F G H I J K L M N O P Q R S T U V W X Y Z 0-9

Blue Skin 1 Guitar Tabs – Nothingface

CD, Sheet music, Poster

Do you like Blue Skin 1? Share with your friends now
TabsTabs v2


Tuning: A#, F, A#, D#, G#, C

pm= Palm-Mute
b = bend
r = release bend
~ = vibrato
h = hammer on

Intro (Guitar One, Pan Center)
C |--------------------------------|
G#|--------------------------------|
D#|--15-15-15-15-15-15-15-14~~~----|
A#|--------------------------------|
F |--------------------------------|
A#|--------------------------------|

Guitar Two, Pan Left
C |--------------------------------|
G#|--------------------------------|
D#|--------------------------2~~---|
A#|------------------------0-------|
F |--3--3--3--3--3--3----0---------|
A#|--3--3--3--3--3--3--0-----------|


Main Riff							End On
C |------------------------------------------------------------|---------------|
G#|------------------------------------------------------------|---------------|
D#|------------------------------------------------------------|---------------|
A#|------------------------------------------------------------|-2-3--3-5--5-6-|
F |------------------------------------------------------------|-2-3--3-5--5-6-|
A#|--0-2--0-2--0-2--0-2--0-2-0-2---2-3--2-3--3-5--3-5--5-6-5-6-|-2-3--3-5--5-6-|


Verse								End On
C |------------------------------------------------------------|---------------|
G#|------------------------------------------------------------|---------------|
D#|------------------------------------------------------------|---------------|
A#|------------------------------------------------------------|-2-3--3-5--5-6-|
F |------------------------------------------------------------|-2-3--3-5--5-6-|
A#|--0-2--0-2--0-2--0-2--0-2-0-2---2-3--2-3--3-5--3-5--5-6-5-6-|-2-3--3-5--5-6-|
     PM------------------------------------------------------|

Chorus
C |--------------------------------|
G#|--------------------------------|
D#|--------------------------------|
A#|--2-2--2-3-0-2-0---2-2-3--------|
F |--2-2--2-3-0-2-0---2-2-3--------|
A#|--2-2--2-3-0-2-0---2-2-3--------|x3

C |----------------------------------------|
G#|----------------------------------------|
D#|----------------------------------------|
A#|--6---5---0---2---3--0-2/3-0-2/3-0-2/3--|
F |--6---5---0---2---3--0-2/3-0-2/3-0-2/3--|
A#|--6---5---0---2---3--0-2/3-0-2/3-0-2/3--|
			PM    PM    PM


Chorus #2
C |--------------------------------|
G#|--------------------------------|
D#|--------------------------------|
A#|--2-2--2-3-0-2-0---2-0-3--------|
F |--2-2--2-3-0-2-0---2-0-3--------|
A#|--2-2--2-3-0-2-0---2-0-3--------|x3

C |---------------------------|
G#|---------------------------|
D#|---------------------------|
A#|--6---5---0---2---3-3--2-2-|
F |--6---5---0---2---3-3--2-2-|
A#|--6---5---0---2---3-3--2-2-|

Breakdown Guitar One
C |-------------------------------------|
G#|-------------------------------------|
D#|-------------------------------------|
A#|--3-----------------0----------------|
F |--3-----------------0----------------|
A#|--3-----------------0----------------|

Breakdown Guitar Two
C |-------------------------------------|
G#|-------------------------------------|
D#|----17~--15~--18~~----17~--15~--18~~-|
A#|-------------------------------------|
F |-------------------------------------|
A#|-------------------------------------|

Interlude
C |-----------------------------------|
G#|-----------------------------------|
D#|-----------------------------------|
A#|--6--0---6--0---6--0---6--0--6-7/9-|
F |--6--0---6--0---6--0---6--0--6-7/9-|
A#|--6--0---6--0---6--0---6--0--6-7/9-|





Comments


Popular Nothingface tabs & chords
One Thing 1 Bass Tabs
Big Fun At The Gallows Tabs
Communion Intro Tabs
Dead Like Me Tabs
Error In Excellence Tabs
Ether 1 Tabs
Here Come The Butchers 1 Tabs
Self Punishment Tabs
Undercut Tabs
Undercut 1 Tabs


Song lyrics



↑ Back to top | Tablatures and chords are parodies/interpretations of the original songs. You may use it for private study, scholarship, research or language learning purposes only
© 2014 AZChords.com Contact us | Privacy policy | DMCA | Add/correct tabs | Request tabs | Top 50 tabs