>
 >
Blue Skin

Blue Skin Guitar Tabs

Nothingface - Blue Skin chords, tabs, tablatures, lyrics

Guitar lessons | Add/correct | Request | Top 50 tabs Artists:  A B C D E F G H I J K L M N O P Q R S T U V W X Y Z 0-9

Blue Skin Guitar Tabs – Nothingface

CD, Sheet music, Poster

Do you like Blue Skin? Share with your friends now
TabsTabs v2

Tuning: 1/2 Step Down, Drop D
Note: All notes are played around 10th through 16th fret. There are no
	open or 1st frets except for Chorus B where open frets have
	no notes beside them.

INTRO: (2 gtrs. playing here.  i just wrote them as one)
|------------------------------|
|--------------------0---2---4-|
|--5-5-5-5-5-5-5-4-4---4---4---|
|------------------------------|
|------------------------------|
|------------------------------|

MAIN RIFF: (no break where spaces are, done to make easier to read)
|------------------------------------------|
|------------------------------------------|
|------------------------------------------|
|------------------------------------------|
|-911119111191111911119111111-111212111212-|
|-911119111191111911119111111-111212111212-|

|----------------------------------|
|----------------------------------|
|----------------------------------|
|----------------------------------|
|-12141412141412141412141412141515-|
|-12141412141412141412141412141515-|

FILL 1:
|----------------------------------------------------------|
|----------------------------------------------------------|
|----------------------------------------------------------|
|-----------------------------11-12-12-14-14-15------------|
|--9111191111911119111191111--11-12-12-14-14-15------------|
|--9111191111911119111191111--11-12-12-14-14-15------------|

VERSE:
|------------------------------------------|
|------------------------------------------|
|------------------------------------------|
|------------------------------------------|
|------------------------------------------|
|-911119111191111911119111111-111212111212-|

|----------------------------------|
|----------------------------------|
|----------------------------------|
|----------------------------------|
|----------------------------------|
|-12141412141412141412141412141515-|

CHORUS:
|----------------------------------------|
|----------------------------------------|
|----------------------------------------|
|--11--11--11-12-9-11--9-11-11/14-14/15--|
|--11--11--11-12-9-11--9-11-11/14-14/15--|
|--11--11--11-12-9-11--9-11-11/14-14/15--|

|-----------------------------------|
|-----------------------------------|
|-----------------------------------|
|--11--11--11-12-9-11--9--16-16-15--|
|--11--11--11-12-9-11--9--16-16-15--|
|--11--11--11-12-9-11--9--16-16-15--|

CHORUS B:
|-------------------------------------|
|-------------------------------------|
|-------------------------------------|
|--16--15--9--12----------------------|
|--16--15--9--12--15/14-0-15/14-0-15--|
|--16--15--9--12--15/14-0-15/14-0-15--|

CHORUS B ALTERNATE:
|-------------------------|
|-------------------------|
|-------------------------|
|--16--15--9--12--16--15--|
|--16--15--9--12--16--15--|
|--16--15--9--12--16--15--|

INTERLUDE:
|-----15-14-17---15-14-17----15-14-17---15-14--|
|----------------------------------------------|
|----------------------------------------------|
|--10----------9----------10----------9--------|
|--10----------9----------10----------9--------|
|--10----------9----------10----------9--------|

INTERLUDE 2:
|--------------------------------|
|--------------------------------|
|--------------------------------|
|--------------------------------|
|--8---8---8---8----/12-12-------|
|----9---9---9---9---------9-12--|

INTERLUDE 3:
|-----------------------------------------|
|-----------------------------------------|
|-----------------------------------------|
|-----------------------------------------|
|--1515-9-1515-9-1515-9-1515--12-12-------|
|--1515-9-1515-9-1515-9-1515--------9-12--|
PM ....   ....   ....   ....

CHORUS D:
|--------------------------------------------------------------|
|--------------------------------------------------------------|
|--------------------------------------------------------------|
|--11--11--11-12-9-11--9-11---11--11--11-12-9-11--9--16-16-15--|
|--11--11--11-12-9-11--9-11---11--11--11-12-9-11--9--16-16-15--|
|--11--11--11-12-9-11--9-11---11--11--11-12-9-11--9--16-16-15--|





Comments


Popular Nothingface tabs & chords
I Cant Wait For Violence Bass Tabs
One Thing 1 Bass Tabs
Bleed Me Dry Tabs
Bleeder Tabs
Defaced Tabs
For All The Sin Tabs
I Wish I Was A Communist Tabs
Same Solution Tabs
Scission 1 Tabs
Undercut 1 Tabs


Song lyrics



↑ Back to top | Tablatures and chords are parodies/interpretations of the original songs. You may use it for private study, scholarship, research or language learning purposes only
© 2014 AZChords.com Contact us | Privacy policy | DMCA | Add/correct tabs | Request tabs | Top 50 tabs