>
 >
Big Fun At The Gallows 1

Big Fun At The Gallows 1 Guitar Tabs

Nothingface - Big Fun At The Gallows 1 chords, tabs, tablatures, lyrics

Guitar lessons | Add/correct | Request | Top 50 tabs Artists:  A B C D E F G H I J K L M N O P Q R S T U V W X Y Z 0-9

Big Fun At The Gallows 1 Guitar Tabs – Nothingface

CD, Sheet music, Poster

Do you like Big Fun At The Gallows 1? Share with your friends now
TabsTabs v2
i know this tab is not perfact nor anywhere near that, so dont complain .........i was high.

Standerd- Eadgbe { dont think they use standard }


e---------------------------------
b---------------------------------
g---------------------------------
d---------------------------------
a-------------4-4----------------        X5
e---3p2p0-------3--3-------------
    _ _ _


e-------------------------------------------------------
b--------------------------------------------------------
g---------------------------------------------------------
d---------------------------------------------------------
a--3-2-2-2-4-2-2-2-5-2-2-2-6-6-6-6----------4-4------------       X4
e--3-2-2-2-4-2-2-2-5-2-2-2-6-6-6-6---3p2p0-------3-3------     
                                     _ _ _
 
e-----------------------------------------------------      e----------------
b------------------------------------------------------     b ---------------
g------------------------------------------------------     g----------------
d-----------------------------------------------------      d--6-6----------- X1
a--3-2-2-2-4-2-2-2-5-2-2-2-6-6-6-6---------4-4--------      a--6-6-----------
e--3-2-2-2-4-2-2-2-5-2-2-2-6-6-6-6---3p2p0-------3-3---     e--6-6-----------   
   _ _ _ _ _ _ _ _ _ _ _ _ _ _ _ _                                                 
  


e------------------------------------------------------
b------------------------------------------------------
g------------------------------------------------------
d------------------------------------------------------
a--3-2-2-2-4-2-2-2-5-2-2-2-6-6-6-6----------4-4---------    X8
e--3-2-2-2-4-2-2-2-5-2-2-2-6-6-6-6---3p2p0-------3-3----    
                                     _ _ _

e--------------------------------------------------------------
b--6-\--5-5-5-5---6-\-5-5-5-5---3-3-3-3------------------------
g--4-\--3-3-3-3---4-\-2-2-2-2---1-1-1-1------------------------
d--4-\--3-3-3-3---4-\-2-2-2-2---1-1-1-1-------------------------         X8
a---------------------------------------------------------------
e---------------------------------------------------------------


e------------------------------------------------------------
b--------------------------------------------------------------
g---1-1-1-1-1--------------------------------------------------
d---1-1-1-1-1---0-3-2-0-5-5-5-----------------------------------           X1
a---1-1-1-1-1---------------------------------------------------
e----------------------------------------------------------------
                _ _ _ _


e-------------------------------------------------------------
b---------------------------------------------------------------
g--7-7-7-7-7-7-7-7-7-7-7-7-\-5-5-5-5-5-5-5-5-5-5-5-5-\--4-4-----
d--x-x-x-x-x-x-x-x-x-x-x-x-\-x-x-x-x-x-x-x-x-x-x-x-x-\--x-x-----    X4
a--5-5-5-5-5-5-5-5-5-5-5-5-\-3-3-3-3-3-3-3-3-3-3-3-3--\-2-2-----
e--------------------------------------------------------------


e-----------------------------------------------------
b-------------------------------------------------------
g--------------------------------------------------------
d---------------------------------------------------------    X1
a-3-3-3-3-2-2-2-2-4-4-5-5------------------4-4------------
e-----------------------------------3p2p0 ------3-3-------
                                    _ _ _

e------------------------------------------------------
b------------------------------------------------------
g--------------------------------------------------------
d---------------------------------------------------------
a--3-2-2-2-4-2-2-2-5-2-2-2-6-6-6-6----------4-4------------       X8
e--3-2-2-2-4-2-2-2-5-2-2-2-6-6-6-6---3p2p0-------3-3------     
                                     _ _ _


e----------------------------------------------------------
b--6-\--5-5-5-5---6-\-5-5-5-5---3-3-3-3--------------------
g--4-\--3-3-3-3---4-\-2-2-2-2---1-1-1-1--------------------
d--4-\--3-3-3-3---4-\-2-2-2-2---1-1-1-1--------------------      X4
a----------------------------------------------------------
e----------------------------------------------------------


e---------------------------------------------------------
b---------------------------------------------------------
g---1-1-1-1-1---------------------------------------------
d---1-1-1-1-1---0-3-2-0-5-5-5-----------------------------          X1
a---1-1-1-1-1---------------------------------------------
e---------------------------------------------------------
                _ _ _ _


e--------------------------------------------------------------
b--------------------------------------------------------------
g--7-7-7-7-7-7-7-7-7-7-7-7-\-5-5-5-5-5-5-5-5-5-5-5-5-\--4-4-----
d--x-x-x-x-x-x-x-x-x-x-x-x-\-x-x-x-x-x-x-x-x-x-x-x-x-\--x-x-----    X4
a--5-5-5-5-5-5-5-5-5-5-5-5-\-3-3-3-3-3-3-3-3-3-3-3-3--\-2-2-----
e---------------------------------------------------------------


e---------------------------------------
b---------------------------------------
g---------------------------------------
d---------------------------------------          X4
a---------------------------------------
e--3-2-0-5-4-3-3------------------------
   _ _ _ _ _ _ _

e----------------------------------
b----------------------------------
g----------------------------------
d----------------------------------   X8
a---3-2-0-5-4-3-------------------
e---3-2-0-5-4-3-------------------


e----------------------------
b---------------------------
g------------5-5-5-5-------
d------------x-x-x-x-------   X5
a--3-2-0-----3-3-3-3-------
e--3-2-0-------------------


e----------------------------
b----------------------------
g------------5-5-5-5-5-------
d------------x-x-x-x-x-------   X1
a--3-2-0-----3-3-3-3-3------
e--3-2-0--------------------


e-------------------------------------------------------
b-------------------------------------------------------
g-------------------------------------------------------    
d-------------------------------------------------------      X1
a-3-3-3---3-3-3---3-3-3---------4-4---------------------
e-3-3-3---3-3-3---3-3-3---3p2p0-------3-3---------------
                          _ _ _

e--------------------------------------------
b--------------------------------------------
g--------------------------------------------
d-------------------------------------------- X2
a-3-3-3---3-3-3---3-3-3----------4-4---------
e-3-3-3---3-3-3---3-3-3---3p2p0-------3-3----
                          _ _ _

e---------------------
b---------------------
g---------------------
d---------------------       X1
a-3-3-3---3-3-3------
e-3-3-3---3-3-3------

e-------------------------------------------------------------
b--------------------------------------------------------------
g--------------------------------------------------------------
d---------------------------------------------------------------           X4
a--------------------------------------------------4-4----------
e--3-3-3-3-3-2-2-2-2-2-1-1-1-1-1-2-2-2-2-2---3p2p0-------3-3-----
                                             _ _ _

e------------------------------------------------------------------
b----16^~ 14^--13^--12~~-------------------------------------------
g-------------------------------------------------------------------
d-------------------------------------------------------------------          X4
a-------------------------------------------------------------------
e-------------------------------------------------------------------


e---------------------------------------------------
b---------------------------------------------------
g---------------------------------------------------
d---------------------------------------------------      X4
a--3-2-2-2-4-2-2-2-5-2-2-2-6-6-6-6-----------------
e--3-2-2-2-4-2-2-2-5-2-2-2-6-6-6-6-----------------
   _ _ _ _ _ _ _ _ _ _ _ _ _ _ _ _                  



e---------------------------------------------------
b---------------------------------------------------
g---------------------------------------------------
d---------------------------------------------------      X4
a--3-2-2-2-4-2-2-2-5-2-2-2-6-6-6-6------------------
e--3-2-2-2-4-2-2-2-5-2-2-2-6-6-6-6------------------


e---------------------------------------------------
b---------------------------------------------------
g---------------------------------------------------
d---------------------------------------------------     X4
a---------------------------------------------------
e--3---2---4---2---5---2---6-----------------------
      \\\     \\\     \\\  \\\
  
e--------------------------------------------------
b--------------------------------------------------
g--------------------------------------------------
d--6-\--------------------------------------------       X1
a--6-\--------------------------------------------
e--6-\--------------------------------------------





Comments


Popular Nothingface tabs & chords
Breath Out Bass Tabs
Breathe Out 1 Tabs
Dead Like Me Tabs
Ether 1 Tabs
Grinning 1 Tabs
Hidden Hands Tabs
I Am Him Tabs
I Wish I Was A Communist Tabs
The Sick 1 Tabs
Undercut 1 Tabs


Song lyrics



↑ Back to top | Tablatures and chords are parodies/interpretations of the original songs. You may use it for private study, scholarship, research or language learning purposes only
© 2014 AZChords.com Contact us | Privacy policy | DMCA | Add/correct tabs | Request tabs | Top 50 tabs