>
 >
Beneath

Beneath Guitar Tabs

Nothingface - Beneath chords, tabs, tablatures, lyrics

Guitar lessons | Add/correct | Request | Top 50 tabs Artists:  A B C D E F G H I J K L M N O P Q R S T U V W X Y Z 0-9

Beneath Guitar Tabs – Nothingface

CD, Sheet music, Poster

Do you like Beneath? Share with your friends now
Tabs
Band: Nothingface
Tuning: CGCFAD

Verse
D|-----------------------------------|
A|-----------------------------------|
F|---------------------------------7-|
C|-8--8--8-8h10-8-5-7------7p5-5-5-7-|
G|-8--8--8-8h10p8-5-7------7p5-5-5-5-|
C|-8--8--8-8h10p8-5-7-7777-7p5-5-5---|
                     \PM/

D|-----------------------------------|
A|-----------------------------------|
F|---------------------------------7-|
C|-8--8--8-8h10p8-5--------7p5-5-5-7-|
G|-8--8--8-8h10p8-5--------7p5-5-5-5-|
C|-8--8--8-8h10p8-5-777777-7p5-5-5---|
                    \_PM_/

Pre Chorus
D|------------------------------------------------------------------|
A|------------------------------------------------------------------|
F|------------------------------------------------------------------|
C|-8--8-8-10--10-10-7--7-7--7-7-7-8--8-8-10--10-10-12--12-12-7--7-7-|
G|-8--8-8-10--10-10-7--7-7--7-7-7-8--8-8-10--10-10-12--12-12-7--7-7-|
C|-8--8-8-10--10-10-7--7-7--7-7-7-8--8-8-10--10-10-12--12-12-7--7-7-|

D|-------------------------------|
A|-------------------------------|
F|-------------------------------|
C|-12-12-12-12-12-12-7-7-7-7-7-7-|
G|-12-12-12-12-12-12-7-7-7-7-7-7-|
C|-12-12-12-12-12-12-7-7-7-7-7-7-|
   \____________PM_____________/

Chorus
D|---------------------------------------------|-----------------|----------------|
A|---------------------------------------------|-----------------|----------------|
F|-----------------------------3/5--5-5-5--5-5-|-3/5--5-5-5--5-5-|-3/5--5-5-6-5-3-|
C|-5--5-5-5--5-5-1--1-1-1--1-1-3/5--5-5-5--5-5-|-3/5--5-5-5--5-5-|-3/5--5-5-6-5-3-|
G|-5--5-5-5--5-5-1--1-1-1--1-1-1/3--3-3-3--3-3-|-1/3--3-3-3--3-3-|-1/3--3-3-4-3-1-|
C|-5--5-5-5--5-5-1--1-1-1--1-1-----------------|-----------------|----------------|

D|---------------------------------------------------------|
A|---------------------------------------------------------|
F|---------------------------------------------------------|
C|-5--5-5-5--5-5-8--8-8-8--8-8-4--4-4-4--4-4--4--4-4-6-6-6-|
G|-5--5-5-5--5-5-8--8-8-8--8-8-4--4-4-4--4-4--4--4-4-6-6-6-|
C|-5--5-5-5--5-5-8--8-8-8--8-8-4--4-4-4--4-4--4--4-4-6-6-6-|

D|----------------------------------|
A|----------------------------------|
F|----------------------------------|
C|-5--5-5-5--5-5-8--8-8-8--8-8-4...-|
G|-5--5-5-5--5-5-8--8-8-8--8-8-4...-|
C|-5--5-5-5--5-5-8--8-8-8--8-8-4...-|

Pre Chorus 2
D|----------------------------------------------------------------|
A|----------------------------------------------------------------|
F|----------------------------------------------------------------|
C|-8-8-8-8----7-7-7-7----8-8-8-8----12-12-12-12-12-12-7-7-7-7-7-7-|
G|-8-8-8-8----7-7-7-7----8-8-8-8----12-12-12-12-12-12-7-7-7-7-7-7-|
C|-8-8-8-8----7-7-7-7----8-8-8-8----12-12-12-12-12-12-7-7-7-7-7-7-|
                                    \____________PM_____________/

Bridge
D|------------------------------------------------------|
A|------------------------------------------------------|
F|-----2--------2---------2----------2------2-----2-----|
C|---1---1----1---1-----1---1------1------1-----1---1---|
G|------------------------------------------------------|
C|-1-------1-3------3-1-------1-3------4------1-------1-|

D|-----------------------------------|
A|---------------4----------4------4-|
F|-----2-------2---2------2------2---|
C|---1---1---------------------------|
G|-----------3-------3-4------1------|
C|-3-------3-------------------------|

D|------------------------------------------------------------|
A|-9--9-9-9--9-9--9--9-9-9--9-9--9--8-8-8--8-8--8--8-8-8--8-8-|
F|-8--8-8-8--8-8--8--8-8-8--8-8--8--7-7-7--7-7--7--7-7-7--7-7-|
C|-6--6-6-6--6-6--6--6-6-6--6-6--6--5-5-5--5-5--5--5-5-5--5-5-|
G|------------------------------------------------------------|
C|------------------------------------------------------------|

D|----------------------------------------------------------------------|
A|-9--9-9-9--9-9--9--9-9-9--9-9--9--8-8-8--8-8--8/9-9-9-9-9-11-11-9-9-8-|
F|-8--8-8-8--8-8--8--8-8-8--8-8--8--7-7-7--7-7--7/8-8-8-8-8-10-10-8-8-7-|
C|-6--6-6-6--6-6--6--6-6-6--6-6--6--5-5-5--5-5--5/6-6-6-6-6-8--8--6-6-5-|
G|----------------------------------------------------------------------|
C|----------------------------------------------------------------------|

D|-----------------------------------------------|
A|-9--9-9-9--9-9--9--9-9-9--9-9-7----------------|
F|-8--8-8-8--8-8--8--8-8-8--8-8-6-(strum and PM)-|
C|-6--6-6-6--6-6--6--6-6-6--6-6-4----------------|
G|-----------------------------------------------|
C|-----------------------------------------------|

Outro
D|---------------------------------|-------------------------------------|
A|---------------------------------|-------------------------------------|
F|---------------------------------|-------------------------------------|
C|-1--1-1-1--1-1-1-3--3-3-3--3-3-3-|-1--1-1-1--1-1-1-3--3-3-3-4--4-4-4-4-|
G|-1--1-1-1--1-1-1-3--3-3-3--3-3-3-|-1--1-1-1--1-1-1-3--3-3-3-4--4-4-4-4-|
C|-1--1-1-1--1-1-1-3--3-3-3--3-3-3-|-1--1-1-1--1-1-1-3--3-3-3-4--4-4-4-4-|

D|-----------------------------------------------------------|
A|---------------------------------------------------------6-|
F|---------------------------------------------------------5-|
C|-1--1-1-1--1-1-1-3--3-3-3--3-3-3-4-4-4-4-4-4-4-4-4-4-4-4-4-|
G|-1--1-1-1--1-1-1-3--3-3-3--3-3-3-4-4-4-4-4-4-4-4-4-4-4-4-4-|
C|-1--1-1-1--1-1-1-3--3-3-3--3-3-3-4-4-4-4-4-4-4-4-4-4-4-4-4-|





Comments


Popular Nothingface tabs & chords
American Love Tabs
Bleeder Tabs
Error In Excellence Tabs
Ether 1 Tabs
For All The Sin Tabs
I Wish I Was A Communist Tabs
Lipsdick Tabs
Perfect Person Tabs
Scission Tabs
Self Punishment Tabs


Song lyrics



↑ Back to top | Tablatures and chords are parodies/interpretations of the original songs. You may use it for private study, scholarship, research or language learning purposes only
© 2014 AZChords.com Contact us | Privacy policy | DMCA | Add/correct tabs | Request tabs | Top 50 tabs