» » »

Verte Reir Chords (ver.1)

Artists:  A B C D E F G H I J K L M N O P Q R S T U V W X Y Z # 

Verte Reir Chords (ver.1)

No Te Va Gustar
Rating:
4/5 (1 vote)

Hard to play? Try these video lessons and learn fast.
                D F#m F#
No se si escuchas
Bm G
o quizas ya no sirve de nada
D F#m F#
Solo murmuras
Bm G
Solo me das vuelta la cara
D F#m F#
Ayer nomás
Bm G
Tu sol me entusiasmaba
D F#m F#
No llorabas por mi
Bm G
No llorabas por nada
D F#m F# Bm G
Dejaste que el dolor te curtiera la piel ojalá no sea tarde
D F#m F# Bm G
Para volver a nacer, para poder levantarte
F# Bm A D
Me encantaria, que estuvieras dormida, que estuvieras dormida
F# Bm G Gm
Me encantaria, volver a verte reir, como me gusta verte reir

e |--------------------------------------------||
B |----5*--3-2-2/3/2----------8-8-8-10*--8-7---||
G |------------------3-4-----------------------|| x 2
D |--------------------------------------------||
A |--------------------------------------------||
E |--------------------------------------------||

D F#m F# Bm G
Dejaste que el dolor te curtiera la piel ojalá no sea tarde
D F#m F# Bm G
Para volver a nacer, para poder levantarte
F# Bm A D
Me encantaria, que estuvieras dormida, que estuvieras dormida
F# Bm G Gm
Me encantaria, volver a verte reir, como me gusta verte
F# Bm A D
Me encantaria, que estuvieras dormida, que estuvieras dormida
F# Bm G Gm
Me encantaria, volver a verte reir, como me gusta verte

D F#m F# Bm G
Como me gusta verte
D
No se si escuchas, o quizás ya no sirve de nada,
D
Que estuvieras dormida, me encantaria
D
Que estuvieras dormida, me encantaria

Final: D
e |------------------------X---||
B |---7--------------------7---||
G |-----7------------------7---||
D |-------7--7/9-7/9-7/9---7---||
A |------------------------5---||
E |------------------------X---||
            
Hard to play? Try these video lessons and learn fast. | Correct




comments powered by Disqus
↑ Back to top | Tablatures and chords are parodies/interpretations of the original songs. You may use it for private study, scholarship, research or language learning purposes only