» » »

This Old Place Bass tabs (ver.1)

Artists:  A B C D E F G H I J K L M N O P Q R S T U V W X Y Z # 

This Old Place Bass tabs (ver.1)

Not By Choice
Rating:
0/5 (0 votes)

Hard to play? Try these video lessons and learn fast.
                Not By Choice-This old place

Intro:
G|-------------------------
D|-------------------------
A|-------22--33--55--------
E|--33---------------------

G|-----------------------------------
D|-----------------------------------
A|--33333--555555--------------------
E|-----------------------3-----------

Verse:
G|------------------------------------------------------
D|------------------------------------------------------
A|----------------22222222--33333333--55555555----------
E|--33333333--------------------------------------------

G|-------------------------------
D|---7---5---4---2-------------
A|-------------------------------
E|---------------------5---------

Chorus:
G|-----------------------------------------------
D|-----------------------------------------------
A|-------------333333-------------555555---
E|--555555-------------333333--------------

Play intro two time but the third time play this:
G|-------------------------------------------------
D|---5---4----2----0-----------------------------
A|-----------------------33333--55555---------
E|-------------------------------------------------

Please rate this tab
            
Hard to play? Try these video lessons and learn fast. | Correct




comments powered by Disqus
↑ Back to top | Tablatures and chords are parodies/interpretations of the original songs. You may use it for private study, scholarship, research or language learning purposes only