» » »

This Is The End Bass tabs (ver.1)

Artists:  A B C D E F G H I J K L M N O P Q R S T U V W X Y Z # 

This Is The End Bass tabs (ver.1)

Not By Choice
Rating:
0/5 (0 votes)

Hard to play? Try these video lessons and learn fast.
                Not By Choice-This is the end

G|----------------------
D|----------------------
A|--5555555555-----
E|----------------------

Intro(x4)
G|--------------------------------------------------------
D|--------------------------------------------------------
A|--555555---------------------------------------------
E|------------555555--222222--333333--55555----

Verse(x2)
G|--------------------------------------------------------------------
D|--------------------------------------------------------------------
A|-555555------------222222--0000-----------------------5------
E|------------333333-------------------333333--4-3-4-3--------

G|------------------------------------
D|------------------------------------
A|------------------------------------
E|-----5555555555555555-------

Chorus(x4)
G|-----------------------------------------------
D|-----------------------------------------------
A|--555555------------------------------------
E|------------555555--222222--333333----

Intro(x2)
G|-------------------------------------------------------
D|--------------------------------------------------------
A|--555555--------------------------------------------
E|------------555555--222222--333333--55555----

Verse(x2)
G|--------------------------------------------------------------------
D|--------------------------------------------------------------------
A|-555555------------222222--0000-----------------------5------
E|------------333333-------------------333333--4-3-4-3--------

G|------------------------------------
D|------------------------------------
A|------------------------------------
E|-----5555555555555555-------
Chorus(x4)
G|-----------------------------------------------
D|-----------------------------------------------
A|--555555------------------------------------
E|------------555555--222222--333333----

Bridge(x2)
G|------------------------------------------------------
D|------------------------------------------------------
A|--2222------------------2222---5555--7777-----
E|-----------3333--5555-----------------------------

After bridge play this 1x and replay bridge 2x and this 1x
G|-------------------------
D|-------------------------
A|-------------------------
E|--333333-5555555---

Chorus(x4)
G|-----------------------------------------------
D|-----------------------------------------------
A|--555555------------------------------------
E|------------555555--222222--333333----

Intro(x2)
G|--------------------------------------------------------
D|--------------------------------------------------------
A|--555555---------------------------------------------
E|------------555555--222222--333333--55555----

Bridge(x2)
G|------------------------------------------------------
D|------------------------------------------------------
A|--2222------------------2222---5555--7777-----
E|-----------3333--5555-----------------------------

After bridge play this 1x and replay bridge 2x and this 1x
G|-------------------------
D|-------------------------
A|-------------------------
E|--333333-5555555---

Please rate this tab
            
Hard to play? Try these video lessons and learn fast. | Correct




comments powered by Disqus
↑ Back to top | Tablatures and chords are parodies/interpretations of the original songs. You may use it for private study, scholarship, research or language learning purposes only