» » »

Not By Choice, Now That Youre Leaving Tabs (ver.1)

Artists:  A B C D E F G H I J K L M N O P Q R S T U V W X Y Z # 

Now That Youre Leaving Tabs (ver.1)

Not By Choice Tabs
Rating:
5/5 (2 votes)
Now That Youre Leaving lessons Tabs too difficult? Try these video lessons and learn fast
                Not By Choice – Now That You Are Leaving

Awsome song and easy to play!

Intro tabbed 4 guitar
e|---------------------------------------------------|
B|---------------------------------------------------|
G|----8-------------------8--------------------------|
D|----8----8----10---6----8----8----10----6----8/----|
A|----6----8----10---6----6----8----10----6----8/----|
E|---------6----8----4---------6----8-----4----6/----|

Riff 
e|-------------------------------------------------------------|
B|-------------------------------------------------------------|
G|-8-7--8-7-8-10-12-10-8------8-7-8-7-8-10--12--10-8--13-12-10-|
D|-------------------------------------------------------------|
A|-------------------------------------------------------------|
E|-------------------------------------------------------------|

e|-------------------------------------------------------------|
B|-------------------------------------------------------------|
G|-8-7--8-7-8-10-12-10-8------8-7-8-7-8-10--12--10-8--13-12-10-|
D|-------------------------------------------------------------|
A|-------------------------------------------------------------|
E|-------------------------------------------------------------|


Verse
e|------------------------|
B|------------------------|
G|----8-------------------|
D|----8----8----10---6----|
A|----6----8----10---6----|
E|---------6----8----4----|
I don't know what to do when the fire's going out

e|------------------------|
B|------------------------|
G|----8-------------------|
D|----8----8----10---6----|
A|----6----8----10---6----|
E|---------6----8----4----|
I don't know where it ends and I don't know where it starts

e|------------------------|
B|------------------------|
G|----8-------------------|
D|----8----8----10---6----|
A|----6----8----10---6----|
E|---------6----8----4----|
P.M.  ----------------
You tell me I have to wait until tomorrow

e|-----------------------------|
B|-----------------------------|
G|----8------------------------|
D|----8----8----10---6----8----|
A|----6----8----10---6----8----|
E|---------6----8----4----6----|
P.M.  ----------------
But I don't know if I can make it through today



Chorus : 
e|--------------|
B|--------------|
G|----8---------|
D|----8----8----|
A|----6----8----|
E|---------6----|
You will never know

e|---------------|
B|---------------|
G|---------------|
D|----10----6----|
A|----10----6----|
E|----8-----4----|
What its like to be here what its like to be me

e|--------------|
B|--------------|
G|----8---------|
D|----8----8----|
A|----6----8----|
E|---------6----|
I won't let it show

e|---------------|
B|---------------|
G|---------------|
D|----10----6----|
A|----10----6----|
E|----8-----4----|
What I'm really feeling now that you are leaving

Riff 
e|-------------------------------------------------------------|
B|-------------------------------------------------------------|
G|-8-7--8-7-8-10-12-10-8------8-7-8-7-8-10--12--10-8--13-12-10-|
D|-------------------------------------------------------------|
A|-------------------------------------------------------------|
E|-------------------------------------------------------------|

Verse
e|------------------------|
B|------------------------|
G|----8-------------------|
D|----8----8----10---6----|
A|----6----8----10---6----|
E|---------6----8----4----|
One year later and the fire's going strong

e|------------------------|
B|------------------------|
G|----8-------------------|
D|----8----8----10---6----|
A|----6----8----10---6----|
E|---------6----8----4----|

I don't know what I did and I don't know what went wrong

e|------------------------|
B|------------------------|
G|----8-------------------|
D|----8----8----10---6----|
A|----6----8----10---6----|
E|---------6----8----4----|
P.M.  ----------------
You tell me that I have to wait until tomorrow

e|-----------------------------|
B|-----------------------------|
G|----8------------------------|
D|----8----8----10---6----8----|
A|----6----8----10---6----8----|
E|---------6----8----4----6----|
P.M.  ----------------
But I don't know if I can make it through today

Chorus : 
e|--------------|
B|--------------|
G|----8---------|
D|----8----8----|
A|----6----8----|
E|---------6----|
You will never know

e|---------------|
B|---------------|
G|---------------|
D|----10----6----|
A|----10----6----|
E|----8-----4----|
What its like to be here what its like to be me

e|--------------|
B|--------------|
G|----8---------|
D|----8----8----|
A|----6----8----|
E|---------6----|
I won't let it show

e|---------------|
B|---------------|
G|---------------|
D|----10----6----|
A|----10----6----|
E|----8-----4----|
What I'm really feeling now that you are leaving

Riff 
e|-------------------------------------------------------------|
B|-------------------------------------------------------------|
G|-8-7--8-7-8-10-12-10-8------8-7-8-7-8-10--12--10-8--13-12-10-|
D|-------------------------------------------------------------|
A|-------------------------------------------------------------|
E|-------------------------------------------------------------|

Bridge

e|-------------------|
B|-------------------|
G|---------8---------|
D|----6----8----10---|
A|----6----6----10---|
E|----4---------8----|
I don't know what you want from me it's something that I can not see

e|---------|
B|---------|
G|---------|
D|----8----|
A|----8----|
E|----6----|
And everything you want from me is something I will never be

e|-------------------|
B|-------------------|
G|---------8---------|
D|----6----8----10---|
A|----6----6----10---|
E|----4---------8----|
I don't know what you want from me it's something that I can not see

e|-------------------|
B|-------------------|
G|-------------------|
D|----8----6----8----|
A|----8----6----8----|
E|----6----4----6----|
And everything they want from me is something I will never be

Chorus : 
e|--------------|
B|--------------|
G|----8---------|
D|----8----8----|
A|----6----8----|
E|---------6----|
You will never know

e|---------------|
B|---------------|
G|---------------|
D|----10----6----|
A|----10----6----|
E|----8-----4----|
What its like to be here what its like to be me

e|--------------|
B|--------------|
G|----8---------|
D|----8----8----|
A|----6----8----|
E|---------6----|
I won't let it show

e|---------------|
B|---------------|
G|---------------|
D|----10----6----|
A|----10----6----|
E|----8-----4----|
What I'm really feeling now that you are leaving


Riff 2x
e|-------------------------------------------------------------|
B|-------------------------------------------------------------|
G|-8-7--8-7-8-10-12-10-8------8-7-8-7-8-10--12--10-8--13-12-10-|
D|-------------------------------------------------------------|
A|-------------------------------------------------------------|
E|-------------------------------------------------------------|
   I wont let it show                I wont let it show.           

e|-------------------------------------------------------------|
B|-------------------------------------------------------------|
G|-8-7--8-7-8-10-12-10-8------8-7-8-7-8-10--12--10-8--13-12-10-|
D|-------------------------------------------------------------|
A|-------------------------------------------------------------|
E|-------------------------------------------------------------|
   I wont let it show                I wont let it show

e|------------------------|
B|------------------------|
G|----8-------------------|
D|----8----8----10---6----|
A|----6----8----10---6----|
E|---------6----8----4----|
Now that you are leaving
            

comments powered by Disqus
↑ Back to top | Not By Choice Tabs for Now That Youre Leaving. Lyrics for acoustic guitar and electric guitar. Tablatures and chords are parodies/interpretations of the original songs. You may use it for private study, scholarship, research or language learning purposes only