>
 >
Intoxicated

Intoxicated Guitar Tabs

Not By Choice - Intoxicated chords, tabs, tablatures, lyrics

Guitar lessons | Add/correct | Request | Top 50 tabs Artists:  A B C D E F G H I J K L M N O P Q R S T U V W X Y Z 0-9

Intoxicated Guitar Tabs – Not By Choice

CD, Sheet music, Poster

Do you like Intoxicated? Share with your friends now
ChordsTabsUkulele
Not by choice
standard tuning

Intro:
Guitar 1
e:------------------------------------------------------------------------------------------------------------
B:------------------------------------------------------------------------------------------------------------
G:-11-11-11-11-11-11-11-11-11-11-11-10-11-11-11-11-11-11-13-13-16-15-11-11-11-11-11-11-13-13-16-15-16-15-13-15
D:-x--x--x--x--x--x--x--x--x--x--x--x--x--x--x--x--x--x--x--x--x--x--x--x--x--x--x--x--x--x--x--x--x--x--x--x-
A:-9--9--9--9--9--9--9--9--9--9--9--8--9--9--9--9--9--9--11-11-14-13-9--9--9--9--9--9--11-11-14-13-14-13-11-13
E:------------------------------------------------------------------------------------------------------------


e:---------------------------------------------------------------------------------------------------
B:--------------------------------------------------------------------------------------------------- _
G:-11-11-11-11-11-11-11-11-11-11-11-10-11-11-11-11-11-11-13-13-16-15-11-11-11-11-11-11-13-13-16-15-18  \
D:-x--x--x--x--x--x--x--x--x--x--x--x--x--x--x--x--x--x--x--x--x--x--x--x--x--x--x--x--x--x--x--x--x-   |this chord 
A:-9--9--9--9--9--9--9--9--9--9--9--8--9--9--9--9--9--9--11-11-14-13-9--9--9--9--9--9--11-11-14-13-16 _/ is played 16 times
E:---------------------------------------------------------------------------------------------------


Guitar 2(plays chorus)
e:------------------------------------------------------------------------------------------------
B:------------------------------------------------------------------------------------------------
G:-------------6-6-6-6-6-6-8-8-8-8-8-8-4-4-4-4-4-4-------------6-6-6-6-6-6-4-4-4-4-4-4-4-4-4-4-4-4
D:-4-4-4-4-4-4-6-6-6-6-6-6-8-8-8-8-8-8-4-4-4-4-4-4-4-4-4-4-4-4-6-6-6-6-6-6-4-4-4-4-4-4-4-4-4-4-4-4 
A:-4-4-4-4-4-4-4-4-4-4-4-4-6-6-6-6-6-6-2-2-2-2-2-2-4-4-4-4-4-4-4-4-4-4-4-4-2-2-2-2-2-2-2-2-2-2-2-2
E:-2-2-2-2-2-2-------------------------------------2-2-2-2-2-2------------------------------------

e:----------------------------------------------------------------------------------------------------------------------
B:----------------------------------------------------------------------------------------------------------------------
G:-------------6-6-6-6-6-6-8-8-8-8-8-8-4-4-4-4-4-4-------------6-6-6-6-6-6-4-4-4-4-4-4-4-4-4-4-4-4-4-6-6-6-6-6-6-6-6-6-6
D:-4-4-4-4-4-4-6-6-6-6-6-6-8-8-8-8-8-8-4-4-4-4-4-4-4-4-4-4-4-4-6-6-6-6-6-6-4-4-4-4-4-4-4-4-4-4-4-4-4-6-6-6-6-6-6-6-6-6-6 
A:-4-4-4-4-4-4-4-4-4-4-4-4-6-6-6-6-6-6-2-2-2-2-2-2-4-4-4-4-4-4-4-4-4-4-4-4-2-2-2-2-2-2-2-2-2-2-2-2-2-4-4-4-4-4-4-4-4-4-4
E:-2-2-2-2-2-2-------------------------------------2-2-2-2-2-2----------------------------------------------------------

Verse:
Guitar 1 and 2
e:-----------------------------------------------------------------------------------------------
B:-----------------------------------------------------------------------------------------------
G:-8-x-x-x-x-x-x-x-x-x-x-6-x-x-x-x-x-x-x-x-x-x-4-x-x-x-x-x-x-x-x-x-x-4-x-x-x-x-x-x-6-x-x-x-x-x-x-
D:-8-x-x-x-x-x-x-x-x-x-x-6-x-x-x-x-x-x-x-x-x-x-4-x-x-x-x-x-x-x-x-x-x-4-x-x-x-x-x-x-6-x-x-x-x-x-x- x2
A:-6-x-x-x-x-x-x-x-x-x-x-4-x-x-x-x-x-x-x-x-x-x-2-x-x-x-x-x-x-x-x-x-x-2-x-x-x-x-x-x-4-x-x-x-x-x-x-
E:-----------------------------------------------------------------------------------------------

Little Thingy:
Guitar 1:
e:-----------------------------------------------------------------------------------------------
B:-----------7-6-7p6p0--h7p6p0--h7p6p0--h7p6p0--h9p7p0--h9p7p0--h9p7p0--h9p7p0-------------------
G:-3-5-6-6-8-------------------------------------------------------------------------------------
D:-----------------------------------------------------------------------------------------------
A:-----------------------------------------------------------------------------------------------
E:-----------------------------------------------------------------------------------------------

Guitar 2:
e:-----------------------------------------------------------------------------------------------------
B:-----------------------------------------------------------------------------------------------------
G:-8-8-8-8-8-8-8-8-8-8-8-6-6-6-6-6-6-6-6-6-6-6-6-4-4-4-4-4-4-4-4-4-4-4-4-4-4-4-4-4-4-4-4-6-6-6-6-6-6-6-
D:-8-8-8-8-8-8-8-8-8-8-8-6-6-6-6-6-6-6-6-6-6-6-6-4-4-4-4-4-4-4-4-4-4-4-4-4-4-4-4-4-4-4-4-6-6-6-6-6-6-6-
A:-6-6-6-6-6-6-6-6-6-6-6-4-4-4-4-4-4-4-4-4-4-4-4-2-2-2-2-2-2-2-2-2-2-2-2-2-2-2-2-2-2-2-2-4-4-4-4-4-4-4-
E:-----------------------------------------------------------------------------------------------------

Verse 2:
Guitar 1 and 2
e:-----------------------------------------------------------------------------------------------
B:-----------------------------------------------------------------------------------------------
G:-8-x-x-x-x-x-x-x-x-x-x-6-x-x-x-x-x-x-x-x-x-x-4-x-x-x-x-x-x-x-x-x-x-4-x-x-x-x-x-x-6-x-x-x-x-x-x-
D:-8-x-x-x-x-x-x-x-x-x-x-6-x-x-x-x-x-x-x-x-x-x-4-x-x-x-x-x-x-x-x-x-x-4-x-x-x-x-x-x-6-x-x-x-x-x-x-
A:-6-x-x-x-x-x-x-x-x-x-x-4-x-x-x-x-x-x-x-x-x-x-2-x-x-x-x-x-x-x-x-x-x-2-x-x-x-x-x-x-4-x-x-x-x-x-x-
E:-----------------------------------------------------------------------------------------------

e:------------------------------------------------------------------------------------------------
B:------------------------------------------------------------------------------------------------
G:-x-x-8-x-x-8-x-x-8-x-x-8-x-x-8-x-x-8-x-x-8-x-x-8-x-x-8-x-x-8-x-x-8-x-x-8-x-x-8-x-x-8-x-x-8-x-x-8
D:-x-x-8-x-x-8-x-x-8-x-x-8-x-x-8-x-x-8-x-x-8-x-x-8-x-x-8-x-x-8-x-x-8-x-x-8-x-x-8-x-x-8-x-x-8-x-x-8
A:-x-x-6-x-x-6-x-x-6-x-x-6-x-x-6-x-x-6-x-x-6-x-x-6-x-x-6-x-x-6-x-x-6-x-x-6-x-x-6-x-x-6-x-x-6-x-x-6
E:------------------------------------------------------------------------------------------------

Chorus:
Guitar 1 and 2
e:------------------------------------------------------------------------------------------------
B:------------------------------------------------------------------------------------------------
G:-------------6-6-6-6-6-6-8-8-8-8-8-8-4-4-4-4-4-4-------------6-6-6-6-6-6-3-3-3-3-3-3-4-4-4-4-4-4
D:-4-4-4-4-4-4-6-6-6-6-6-6-8-8-8-8-8-8-4-4-4-4-4-4-4-4-4-4-4-4-6-6-6-6-6-6-3-3-3-3-3-3-4-4-4-4-4-4 
A:-4-4-4-4-4-4-4-4-4-4-4-4-6-6-6-6-6-6-2-2-2-2-2-2-4-4-4-4-4-4-4-4-4-4-4-4-1-1-1-1-1-1-2-2-2-2-2-2
E:-2-2-2-2-2-2-------------------------------------2-2-2-2-2-2------------------------------------

e:----------------------------------------------------------------------------------------------------------------------
B:----------------------------------------------------------------------------------------------------------------------
G:-------------6-6-6-6-6-6-8-8-8-8-8-8-4-4-4-4-4-4-------------6-6-6-6-6-6-4-4-4-4-4-4-4-4-4-4-4-4-4-6-6-6-6-6-6-6-6-6-6
D:-4-4-4-4-4-4-6-6-6-6-6-6-8-8-8-8-8-8-4-4-4-4-4-4-4-4-4-4-4-4-6-6-6-6-6-6-4-4-4-4-4-4-4-4-4-4-4-4-4-6-6-6-6-6-6-6-6-6-6 
A:-4-4-4-4-4-4-4-4-4-4-4-4-6-6-6-6-6-6-2-2-2-2-2-2-4-4-4-4-4-4-4-4-4-4-4-4-2-2-2-2-2-2-2-2-2-2-2-2-2-4-4-4-4-4-4-4-4-4-4
E:-2-2-2-2-2-2-------------------------------------2-2-2-2-2-2----------------------------------------------------------

Little Thingy:
Guitar 1:
e:-----------------------------------------------------------------------------------------------
B:-----------7-6-7p6p0--h7p6p0--h7p6p0--h7p6p0--h9p7p0--h9p7p0--h9p7p0--h9p7p0-------------------
G:-3-5-6-6-8-------------------------------------------------------------------------------------
D:-----------------------------------------------------------------------------------------------
A:-----------------------------------------------------------------------------------------------
E:-----------------------------------------------------------------------------------------------

Guitar 2:
e:-----------------------------------------------------------------------------------------------------
B:-----------------------------------------------------------------------------------------------------
G:-8-8-8-8-8-8-8-8-8-8-8-6-6-6-6-6-6-6-6-6-6-6-6-4-4-4-4-4-4-4-4-4-4-4-4-4-4-4-4-4-4-4-4-6-6-6-6-6-6-6-
D:-8-8-8-8-8-8-8-8-8-8-8-6-6-6-6-6-6-6-6-6-6-6-6-4-4-4-4-4-4-4-4-4-4-4-4-4-4-4-4-4-4-4-4-6-6-6-6-6-6-6-
A:-6-6-6-6-6-6-6-6-6-6-6-4-4-4-4-4-4-4-4-4-4-4-4-2-2-2-2-2-2-2-2-2-2-2-2-2-2-2-2-2-2-2-2-4-4-4-4-4-4-4-
E:-----------------------------------------------------------------------------------------------------

Little harmonization:
Guitar 1:
e:------------------------------------------
B:---------7---------7---------7-----7-6----
G:-3-4-6-6---3-4-6-6---3-4-6-6----6-----8-6-
D:------------------------------------------
A:------------------------------------------
E:------------------------------------------

Guitar 2:
e:------------------------------------------
B:------------------------------------------
G:---------6---------6---------6---6-5------
D:-4-6-8-8---4-6-8-8---4-6-8-8---8------9-8-
A:------------------------------------------
E:------------------------------------------

Chorus:
Guitar 1 and 2

e:------------------------------------------------------------------------------------------------
B:------------------------------------------------------------------------------------------------
G:-------------6-6-6-6-6-6-8-8-8-8-8-8-4-4-4-4-4-4-------------6-6-6-6-6-6-3-3-3-3-3-3-4-4-4-4-4-4
D:-4-4-4-4-4-4-6-6-6-6-6-6-8-8-8-8-8-8-4-4-4-4-4-4-4-4-4-4-4-4-6-6-6-6-6-6-3-3-3-3-3-3-4-4-4-4-4-4 
A:-4-4-4-4-4-4-4-4-4-4-4-4-6-6-6-6-6-6-2-2-2-2-2-2-4-4-4-4-4-4-4-4-4-4-4-4-1-1-1-1-1-1-2-2-2-2-2-2
E:-2-2-2-2-2-2-------------------------------------2-2-2-2-2-2------------------------------------

e:----------------------------------------------------------------------------------------------------------------------
B:----------------------------------------------------------------------------------------------------------------------
G:-------------6-6-6-6-6-6-8-8-8-8-8-8-4-4-4-4-4-4-------------6-6-6-6-6-6-4-4-4-4-4-4-4-4-4-4-4-4-4-6-6-6-6-6-6-6-6-6-6
D:-4-4-4-4-4-4-6-6-6-6-6-6-8-8-8-8-8-8-4-4-4-4-4-4-4-4-4-4-4-4-6-6-6-6-6-6-4-4-4-4-4-4-4-4-4-4-4-4-4-6-6-6-6-6-6-6-6-6-6 
A:-4-4-4-4-4-4-4-4-4-4-4-4-6-6-6-6-6-6-2-2-2-2-2-2-4-4-4-4-4-4-4-4-4-4-4-4-2-2-2-2-2-2-2-2-2-2-2-2-2-4-4-4-4-4-4-4-4-4-4
E:-2-2-2-2-2-2-------------------------------------2-2-2-2-2-2----------------------------------------------------------

Bridge:
1st part Guitar one and two:
e:----------------------------------------------------------------------------------------
B:----------------------------------------------------------------------------------------
G:-8-8-8-8-8-8-8-8-8-8-8-4-4-4-4-4-4-4-4-4-4-----------------------6-6-6-6-6-6-6-6-6-6-6-6
D:-8-8-8-8-8-8-8-8-8-8-8-4-4-4-4-4-4-4-4-4-4-4-4-4-4-4-4-4-4-4-4-4-6-6-6-6-6-6-6-6-6-6-6-6
A:-6-6-6-6-6-6-6-6-6-6-6-2-2-2-2-2-2-2-2-2-2-4-4-4-4-4-4-4-4-4-4-4-4-4-4-4-4-4-4-4-4-4-4-4
E:-------------------------------------------2-2-2-2-2-2-2-2-2-2-2------------------------
Play that once then this:

Guitar 1 goes up high:
e:-----------------------------------------------------------------------------------------------
B:-----------------------------------------------------------------------------------------------
G:-8-8-8-8-8-8-8-8-8-8-11-11-11-11-11-11-11-11-11-11-11-11-11-11-11-11-11-11-11-11-13-16-15-13-15
D:-x-x-x-x-x-x-x-x-x-x-x--x--x--x--x--x--x--x--x--x--x--x--x--x--x--x--x--x--x--x--x--x--x--x--x-
A:-6-6-6-6-6-6-6-6-6-6-9--9--9--9--9--9--9--9--9--9--9--9--9--9--9--9--9--9--9--9--11-14-13-11-13
E:-----------------------------------------------------------------------------------------------

While guitar two continues the 1st part:
e:----------------------------------------------------------------------------------------
B:----------------------------------------------------------------------------------------
G:-8-8-8-8-8-8-8-8-8-8-8-4-4-4-4-4-4-4-4-4-4-----------------------6-6-6-6-6-6-6-6-6-6-6-6
D:-8-8-8-8-8-8-8-8-8-8-8-4-4-4-4-4-4-4-4-4-4-4-4-4-4-4-4-4-4-4-4-4-6-6-6-6-6-6-6-6-6-6-6-6
A:-6-6-6-6-6-6-6-6-6-6-6-2-2-2-2-2-2-2-2-2-2-4-4-4-4-4-4-4-4-4-4-4-4-4-4-4-4-4-4-4-4-4-4-4
E:-------------------------------------------2-2-2-2-2-2-2-2-2-2-2------------------------

Solo:
Guitar 1
e:-----------------------------------------------------------------------------------------------------------------------------
B:-9p6h7p6-9p6h7p6-9p6h7p6-9p6h7p6-9p6h7p6-9p6h7p6-9p6h7p6-9p6h7p6-12p9h11p9-12p9h11p9-12p9h11p9-12p9h11p9-12p9h11p9-12p9h11p9-
G:-----------------------------------------------------------------------------------------------------------------------------
D:-----------------------------------------------------------------------------------------------------------------------------
A:-----------------------------------------------------------------------------------------------------------------------------
E:-----------------------------------------------------------------------------------------------------------------------------

e:---------------------9p6h7p6-9p6h7p6-9p6h7p6-9p6h7p6-9p6h7p6-9p6h7p6-9p6h7p6-9p6h7p6-9p6h7p6-------------7-6-7-9-7-6
B:-12p9h11p9-12p9h11p9------------------------------------------------------------------------------------------------
G:--------------------------------------------------------------------------------------------------------------------
D:--------------------------------------------------------------------------------------------------------------------
A:--------------------------------------------------------------------------------------------------------------------
E:--------------------------------------------------------------------------------------------------------------------

Guitar 2
e:-----------------------------------------------------------------------------------------------------
B:-----------------------------------------------------------------------------------------------------
G:-8-8-8-8-8-8-8-8-8-8-8-6-6-6-6-6-6-6-6-6-6-6-6-4-4-4-4-4-4-4-4-4-4-4-4-4-4-4-4-4-4-4-4-6-6-6-6-6-6-6-
D:-8-8-8-8-8-8-8-8-8-8-8-6-6-6-6-6-6-6-6-6-6-6-6-4-4-4-4-4-4-4-4-4-4-4-4-4-4-4-4-4-4-4-4-6-6-6-6-6-6-6-
A:-6-6-6-6-6-6-6-6-6-6-6-4-4-4-4-4-4-4-4-4-4-4-4-2-2-2-2-2-2-2-2-2-2-2-2-2-2-2-2-2-2-2-2-4-4-4-4-4-4-4-
E:-----------------------------------------------------------------------------------------------------

Little harmonization:
Guitar 1:
e:-----------------------------------------------
B:---------7---------7---------7-----7-6---------
G:-3-4-6-6---3-4-6-6---3-4-6-6-----6-----8-6-4-3-
D:-----------------------------------------------
A:-----------------------------------------------
E:-----------------------------------------------

Guitar 2:
e:----------------------------------------------
B:----------------------------------------------
G:---------6---------6---------6---6-5----------
D:-4-6-8-8---4-6-8-8---4-6-8-8---8------9-8-6-4-
A:----------------------------------------------
E:----------------------------------------------

Final Pre chorus
Guitar 1
e:------------------------------------------------------------------------------------------------------------
B:------------------------------------------------------------------------------------------------------------
G:-11-11-11-11-11-11-11-11-11-11-11-10-11-11-11-11-11-11-13-13-16-15-11-11-11-11-11-11-13-13-16-15-16-15-13-15
D:-x--x--x--x--x--x--x--x--x--x--x--x--x--x--x--x--x--x--x--x--x--x--x--x--x--x--x--x--x--x--x--x--x--x--x--x-
A:-9--9--9--9--9--9--9--9--9--9--9--8--9--9--9--9--9--9--11-11-14-13-9--9--9--9--9--9--11-11-14-13-14-13-11-13
E:------------------------------------------------------------------------------------------------------------

Guitar 2
e:------------------------------------------------------------------------------------------------
B:------------------------------------------------------------------------------------------------
G:-------------6-6-6-6-6-6-8-8-8-8-8-8-4-4-4-4-4-4-------------6-6-6-6-6-6-3-3-3-3-3-3-4-4-4-4-4-4
D:-4-4-4-4-4-4-6-6-6-6-6-6-8-8-8-8-8-8-4-4-4-4-4-4-4-4-4-4-4-4-6-6-6-6-6-6-3-3-3-3-3-3-4-4-4-4-4-4 
A:-4-4-4-4-4-4-4-4-4-4-4-4-6-6-6-6-6-6-2-2-2-2-2-2-4-4-4-4-4-4-4-4-4-4-4-4-1-1-1-1-1-1-2-2-2-2-2-2
E:-2-2-2-2-2-2-------------------------------------2-2-2-2-2-2------------------------------------


Guitar 1 and 2:
e:----------------------------------------------------------------------------------------------------------------------
B:----------------------------------------------------------------------------------------------------------------------
G:-------------6-6-6-6-6-6-8-8-8-8-8-8-4-4-4-4-4-4-------------6-6-6-6-6-6-4-4-4-4-4-4-4-4-4-4-4-4-4-6-6-6-6-6-6-6-6-6-6
D:-4-4-4-4-4-4-6-6-6-6-6-6-8-8-8-8-8-8-4-4-4-4-4-4-4-4-4-4-4-4-6-6-6-6-6-6-4-4-4-4-4-4-4-4-4-4-4-4-4-6-6-6-6-6-6-6-6-6-6 
A:-4-4-4-4-4-4-4-4-4-4-4-4-6-6-6-6-6-6-2-2-2-2-2-2-4-4-4-4-4-4-4-4-4-4-4-4-2-2-2-2-2-2-2-2-2-2-2-2-2-4-4-4-4-4-4-4-4-4-4
E:-2-2-2-2-2-2-------------------------------------2-2-2-2-2-2----------------------------------------------------------

Outro:
Guitar 1
e:------------------------------------------------------------------------------------------------------------
B:------------------------------------------------------------------------------------------------------------
G:-11-11-11-11-11-11-11-11-11-11-11-10-11-11-11-11-11-11-13-13-16-15-11-11-11-11-11-11-13-13-16-15-16-15-13-15
D:-x--x--x--x--x--x--x--x--x--x--x--x--x--x--x--x--x--x--x--x--x--x--x--x--x--x--x--x--x--x--x--x--x--x--x--x-
A:-9--9--9--9--9--9--9--9--9--9--9--8--9--9--9--9--9--9--11-11-14-13-9--9--9--9--9--9--11-11-14-13-14-13-11-13
E:------------------------------------------------------------------------------------------------------------


e:---------------------------------------------------------------------------------------------------
B:--------------------------------------------------------------------------------------------------- _
G:-11-11-11-11-11-11-11-11-11-11-11-10-11-11-11-11-11-11-13-13-16-15-11-11-11-11-11-11-13-13-16-15-18  \
D:-x--x--x--x--x--x--x--x--x--x--x--x--x--x--x--x--x--x--x--x--x--x--x--x--x--x--x--x--x--x--x--x--x-   |this chord
A:-9--9--9--9--9--9--9--9--9--9--9--8--9--9--9--9--9--9--11-11-14-13-9--9--9--9--9--9--11-11-14-13-16 _/ is played 16
E:---------------------------------------------------------------------------------------------------       times


Guitar 2(plays chorus)
e:------------------------------------------------------------------------------------------------
B:------------------------------------------------------------------------------------------------
G:-------------6-6-6-6-6-6-8-8-8-8-8-8-4-4-4-4-4-4-------------6-6-6-6-6-6-4-4-4-4-4-4-4-4-4-4-4-4
D:-4-4-4-4-4-4-6-6-6-6-6-6-8-8-8-8-8-8-4-4-4-4-4-4-4-4-4-4-4-4-6-6-6-6-6-6-4-4-4-4-4-4-4-4-4-4-4-4 
A:-4-4-4-4-4-4-4-4-4-4-4-4-6-6-6-6-6-6-2-2-2-2-2-2-4-4-4-4-4-4-4-4-4-4-4-4-2-2-2-2-2-2-2-2-2-2-2-2
E:-2-2-2-2-2-2-------------------------------------2-2-2-2-2-2------------------------------------

e:----------------------------------------------------------------------------------------------------------------------
B:----------------------------------------------------------------------------------------------------------------------
G:-------------6-6-6-6-6-6-8-8-8-8-8-8-4-4-4-4-4-4-------------6-6-6-6-6-6-4-4-4-4-4-4-4-4-4-4-4-4-4-6-6-6-6-6-6-6-6-6-6
D:-4-4-4-4-4-4-6-6-6-6-6-6-8-8-8-8-8-8-4-4-4-4-4-4-4-4-4-4-4-4-6-6-6-6-6-6-4-4-4-4-4-4-4-4-4-4-4-4-4-6-6-6-6-6-6-6-6-6-6 
A:-4-4-4-4-4-4-4-4-4-4-4-4-6-6-6-6-6-6-2-2-2-2-2-2-4-4-4-4-4-4-4-4-4-4-4-4-2-2-2-2-2-2-2-2-2-2-2-2-2-4-4-4-4-4-4-4-4-4-4
E:-2-2-2-2-2-2-------------------------------------2-2-2-2-2-2----------------------------------------------------------





Comments


Popular Not By Choice tabs & chords
Now That Youre Leaving Bass Tabs
Intoxicated Chords
Make My Day Chords
Maybe One Day Chords
Now That Youre Leaving Chords
Now That You Are Leaving Tabs
Wish Upon A Star Tabs
Make My Day Ukulele
Now That Youre Leaving Ukulele
Standing All Alone Ukulele


Song lyrics



↑ Back to top | Tablatures and chords are parodies/interpretations of the original songs. You may use it for private study, scholarship, research or language learning purposes only
© 2014 AZChords.com Contact us | Privacy policy | DMCA | Add/correct tabs | Request tabs | Top 50 tabs